• Streaming gitaar liedjes spelen
  • Leer gitaar spelen & gitaarlessen
  • 75.000 leden
Verse:**


Chorus:
e|----------------------------------------------------------|
B|----------------------------------------------------------|
G|-555555555555-------------7-7-------------7-7-------------|
D|-555555555555-7-7-7-7-5-5-7-7-7-7-7-7-5-5-7-7-------------|
A|-333333333333-7-7-7-7-5-5-5-5-7-7-7-7-5-5-5-5-------------|
E|--------------5-5-5-5-3-3-----5-5-5-5-3-3-----------------|

e|----------------------------------------------------------|
B|----------------------------------------------------------|
G|-------------7-7-----------------7~\----------------------|
D|-7-7-7-7-5-5-7-7-7-7-7-7-5-5-5-5-7~\----------------------|
A|-7-7-7-7-5-5-5-5-7-7-7-7-5-5-5-5-5~\----------------------|
E|-5-5-5-5-3-3-----5-5-5-5-3-3-3-3--------------------------|


Verse:**


Chorus:
e|----------------------------------------------------------|
B|----------------------------------------------------------|
G|-555555555555-------------7-7-------------7-7-------------|
D|-555555555555-7-7-7-7-5-5-7-7-7-7-7-7-5-5-7-7-------------|
A|-333333333333-7-7-7-7-5-5-5-5-7-7-7-7-5-5-5-5-------------|
E|--------------5-5-5-5-3-3-----5-5-5-5-3-3-----------------|

e|----------------------------------------------------------|
B|----------------------------------------------------------|
G|-------------7-7-----------------7~\----------------------|
D|-7-7-7-7-5-5-7-7-7-7-7-7-5-5-5-5-7~\----------------------|
A|-7-7-7-7-5-5-5-5-7-7-7-7-5-5-5-5-5~\----------------------|
E|-5-5-5-5-3-3-----5-5-5-5-3-3-3-3--------------------------|


Bridge:
e|----------------------------------------------------------|
B|----------------------------------------------------------|
G|-7-7-7-7-5-5-5-5-7-7-7-7-5-5-5-5--------------------------|
D|-7-7-7-7-5-5-5-5-7-7-7-7-5-5-5-5--------------------------|
A|-5-5-5-5-3-3-3-3-5-5-5-5-3-3-3-3--------------------------|
E|-----------------------
De rest van dit nummer alleen voor Gitaartabs leden! Maak gratis Gitaartabs account aan . 
Gitaar Tabs

Download, print en speel de Tab ♪ Green Day - Longview

Meld je aan en print, download of speel binnen 15 sec mee Tab ♫ Green Day - Longview.
Reeds 70.000 gitaristen zijn je voorgegaan.

Gratis Aanmelden Gitaartabs