• Streaming gitaar liedjes spelen
  • Leer gitaar spelen & gitaarlessen
  • 75.000 leden
Extra makkelijk want het zijn de tabas en de akkoorden.

   A5       D5 A5  x4    D5     E5 D5
e|-------------------------------------|
B|-------------------------------------|
G|----------7------------7------9--7---|
D|-7--------7--7---------7------9--7---|
A|-7--------5--7---------5------7--5---|
E|-5-----------5-----------------------|

Verse:
   A5   D5   E5   A5  x6
e|--------------------|
B|--------------------|
G|------7----9--------|
D|-7----7----9----7---|
A|-7----5----7----7---|
E|-5--------------5---|

Chorus:
   D5      A5      D5      E5  
e|-----------------------------|
B|-----------------------------|
G|-7---------------7-------9---|
D|-7-------7-------7-------9---|
A|-5-------7-------5-------7---|
E|---------5-------------------|

Interlude:
   A5    D5 A5 D5 E5  x4
e|--------------------|
B|-
De rest van dit nummer alleen voor Gitaartabs leden! Maak gratis Gitaartabs account aan . 
Gitaar Tabs

Download, print en speel de Tab ♪ Green Day - St. Jimmy

Meld je aan en print, download of speel binnen 15 sec mee Tab ♫ Green Day - St. Jimmy.
Reeds 70.000 gitaristen zijn je voorgegaan.

Gratis Aanmelden Gitaartabs

Wat vind jij van deze song? Green Day - St. Jimmy


Plaats opmerkingen e.o. suggestie voor Green Day - St. Jimmy