• Streaming gitaar liedjes spelen
  • Leer gitaar spelen & gitaarlessen
  • 75.000 leden
--------------------------|----------------------------|
-------3------------------|----------------------------|
-4-----2--4---------------|-----------------------4----|
-4--2--0--4---------------|-6-6-6-6-6---2-2-2-2-2-4----|
-2--2-----2---hold note---|-6-6-6-6-6-0-2-2-2-2-2-2etc-|
----0-------bass comes in-|-4-4-4-4-4-0-0-0-0-0-0------|
                          {------------x3--------------}

verse:
---------2-2-2-2-------------------------------------------0
---------3-3-3-3-----------------------------------------0--
-1-1-1-1-2-2-2-2-6-6-6-6-4-4-4-4-4---------2-2-2-----1/2----
-2-2-2-2-0-0-0-0-6-6-6-6-4-4-4-4-4-4-4
De rest van dit nummer alleen voor Gitaartabs leden! Maak gratis Gitaartabs account aan . 
Gitaar Tabs

Download, print en speel de Tab ♪ Green Day - Time Of Your Life

Meld je aan en print, download of speel binnen 15 sec mee Tab ♫ Green Day - Time Of Your Life.
Reeds 70.000 gitaristen zijn je voorgegaan.

Gratis Aanmelden Gitaartabs

Comments Green Day - Time Of Your Life - tab

Ninaa

Ninaa 2009-11-09

huh ??

ik snap dit niet echt?

hij klinkt totaal anders als ik hem speel?


mike

Mike 2009-08-24

Ik heb een videootje gemaakt van dit nummertje hoop dat je er wat aan heb??

 

MOVIE1


jorisis

Jorisis 2009-06-06

ik speel meestal dit liedje op een andere site.....en dat is daar tog heel anders.
hoe kan ditVerbaasd? Verbaasd Verbaasd Verbaasd Verbaasd


djmarcy

Djmarcy 2009-02-07

ik snap hem niet kan je hem ook maken dat je de akkoorden zegt of hem uitlegen.

gr marc