• Streaming gitaar liedjes spelen
  • Leer gitaar spelen & gitaarlessen
  • 75.000 leden
Wake me up when september ends - green day

C	x32010    
Cm   	x35543
G	320003
Em	022000
Bm	x24432
D	xx0232




Intro (acoustisch)
E|----------------|----------------|----------------|----------------|
B|----3-----3-----|----3-----3-----|----3-----3-----|----3-----3-----|
G|--0-----0-------|--0-----0-------|--0-----0-------|--0-----0-------|
D|5-----5---------|5-----5---------|5-----5---------|5-----5---------|
A|----------------|----------------|----------------|----------------|
E|----------------|----------------|----------------|----------------|

Verse 1 – [Riff 1]
E|----------------|----------------|----------------|----------------|
B|----3-----3-----|----3-----3-----|----3-----3-----|----3-----3-----|
G|--0-----0-------|--0-----0-------|--0-----0-------|--0-----0-------|
D|5-----5---------|4-----4---------|2-----2---------|0-----0---------|
A|----------------|----------------|----------------|----------------|
E|----------------|----------------|----------------|----------------|
 Summer has come and passed		The innocent can never last

    C                Cm               G                G
E|----0-----0-----|----------------|----------------|----------------|
B|----1-1---1---1-|----4-----4-----|----3-----3-----|----3-----3-----|
G|--0-------0-----|--5---5---5---0-|----0-0---0---0-|----0-0---0---0-|
D|----------------|--------5-----0-|--0-------0-----|--0-------0-----|
A|3-------3-------|3---------------|----------------|----------------|
E|----------------|----------------|3-------3-------|3-------3-------|
 wake me up when september ends 

Verse 2
E|----------------|----------------|----------------|----------------|
B|----3-----3-----|----3-----3-----|----3-----3-----|----3-----3-----|
G|--0-----0-------|--0-----0-------|--0-----0-------|--0-----0-------|
D|5-----5---------|4-----4---------|2-----2---------|0-----0---------|
A|----------------|----------------|----------------|----------------|
E|----------------|----------------|----------------|----------------|
 like my fathers come to pass		seven years has gone so fast

    C                Cm               G              G	G/Gb
E|----0-----0-----|----------------|----------------|----3-----------|
B|----1-1---1---1-|----4-----4-----|----3-----3-----|----3-------3-0-|
G|--0-------0-----|--5---5---5---0-|----0-0---0---0-|----0-0-----0---|
D|----------------|--------5-----0-|--0-------0-----|--0-------------|
A|3-------3-------|3---------------|----------------|----------0-----|
E|----------------|----------------|3-------3-------|3-------2-------|
 wake me up when september ends 

Bridge
     Em               Bm               C                G       G/Gb 
 E|----------------|----------------|----0-----0-----|----3-----------|
 B|----0-----0-----|----3-----3-----|----1-1---1-----|----3-------3-0-|
 G|----0-0---0-----|----4-----4-----|--0-------0---0-|----0-0-----0---|
 D|--2-------2---0-|--4---4-------4-|--------------0-|--0-------------|
 A|----------------|2-------2-------|3-------3-------|----------0-----|
 E|0-------0-------|----------------|----------------|3-------2-------|

here comes the rain again 			falling from the stars
                  
     Em               Bm               C                D 
 E|----------------|----------------|----0-----0-----|----2-----2-----|
 B|----0-----0-----|----3-----3-----|----1-1---1-----|----3-3---3-----|
 G|----0-0---0-----|----4-----4-----|--0-------0---0-|--2---2---2---0-|
 D|--2-------2---0-|--4---4-------4-|----------------|0-------0-------|
 A|----------------|2-------2-------|3-------3-------|----------------|
 E|0-------0-------|----------------|----------------|----------------|
	drenched in my pain again		becoming who we are

[Riff 1]
as my memory rests
but never forgets what I lost
C	Cm	G	
wake me up when september ends

[Intro]
E|----------------|----------------|----------------|----------------|
B|----3-----3-----|----3-----3-----|----3-----3-----|----3-----3-----|
G|--0-----0-------|--0-----0-------|--0-----0-------|--0-----0-------|
D|5-----5---------|5-----5---------|5-----5---------|5-----5---------|
A|----------------|----------------|----------------|----------------|
E|----------------|----------------|----------------|----------------|

[Distortion]
E|----------------|----------------|
B|----3-----3-----|----3-----3-----|
G|--0-----0-------|--0-----0-------|
D|5-----5---------|5-----5---------|
A|----------------|----------------|
E|----------------|----------------|

E|----------------|----------------|----------------|----------------|
B|----3-----3-----|----3-----3-----|----3-----3-----|----3-----3-----|
G|--0-----0-------|--0-----0-------|--0-----0-------|--0-----0-------|
D|5-----5---------|4-----4---------|2-----2---------|0-----0---------|
A|----------------|----------------|----------------|----------------|
E|----------------|----------------|----------------|----------------|
Summer has come and passed		The innocent can never last

   C  
De rest van dit nummer alleen voor Gitaartabs leden! Maak gratis Gitaartabs account aan . 
Gitaar Tabs

Download, print en speel de Tab ♪ Green Day - Wake Me Up When September Ends

Meld je aan en print, download of speel binnen 15 sec mee Tab ♫ Green Day - Wake Me Up When September Ends.
Reeds 70.000 gitaristen zijn je voorgegaan.

Gratis Aanmelden Gitaartabs

Comments Green Day - Wake Me Up When September Ends - tab

synyster gibson

Synyster gibson 2010-03-29

echt zo'n bangelijk lieke


XxPriyaxX

XxPriyaxX 2010-03-01

Dit is zo`n mooi nummer!


fakafafa

Fakafafa 2010-02-18

thx mate :D


Ninaa

Ninaa 2009-11-09

ik vind het echt zo'n mooi lied, dat heeft Billie speciaal voor zijn vader geschreven =3

 


robijntje

Robijntje 2009-04-25

Grijns verslavend!


christian_111

Christian_111 2008-11-01

mooi nummer Lachen


JouryB

JouryB 2008-10-18

Coole tab mooi liedje Knipoog


Doros

Doros 2008-03-19

Daar ben ik wel een tijdje mee bezig geweest Grijns