• Streaming gitaar liedjes spelen
  • Leer gitaar spelen & gitaarlessen
  • 75.000 leden
Kevin Bruin

Greenday – When I Come Around

Intro: + Verse:
|------------|------------------------------------
|------------|------------------------------------
|------------|-----6--------8--4--4-4------------- 11x 
|------4-----|-6-6-6-6-6--8-8--4--4-4-4-4---------
|--4-4-4-4-4-|-4-4-4-4-4--6-6--2--2-2-2-2---------
|--2-2-2-2-2-|-*-*---*-*--*-----------------------
   * *   * *
Bridge:
|--------------------------------------
|--------------------------------------
|------------------4-4-4-4-4-4-4-4----
De rest van dit nummer alleen voor Gitaartabs leden! Maak gratis Gitaartabs account aan . 
Gitaar Tabs

Download, print en speel de Tab ♪ Green Day - When I Come Around

Meld je aan en print, download of speel binnen 15 sec mee Tab ♫ Green Day - When I Come Around.
Reeds 70.000 gitaristen zijn je voorgegaan.

Gratis Aanmelden Gitaartabs

Comments Green Day - When I Come Around - tab

kenworth

Kenworth 2012-05-07

En
We willen graag de tekst erbij hebben, op die manier bied je een goede, maar ook een gehele tab aan.
Zo je dat willen toevoegen?, alvast bedankt


haanke

Haanke 2010-04-29

leuk gedaan maar kan je me uitleggen hoe ik die moet lezen