• Streaming gitaar liedjes spelen
  • Leer gitaar spelen & gitaarlessen
  • 80.000 leden
Intro: Gitaar Elektrisch, kan ook op akoestisch          

 

Am            Dm            G

E|-----|--------0-------------1---------------3-----------------------|

B|-----|----------1---------3---3---------------3---------------------|

G|-----|------2-----2-----2-------2---------0-----0-------0-----0-----|

D|-----|----2---------0-0-----------------0-------------0-----0-------|

A|-----|--0-------------------------0---2-----------0-3-----2-----3-2-|

E|--3--|------------------------------3-------------------------------|

 

  Am            Dm            G

E|-------0-------------1--------------------------|

B|---------1---------3---3------------------------|

G|-----2-----2-----2-------2---------0------------|

D|---2---------0-0-----------------0-----------2--|

A|-0-------------------------0---2-------------0--|

E|-----------------------------3----
>> Registreer, speel & download <<
Meld nu aan en speel de rest van Guns N Roses - Don't Cry

>> Registreer, speel & download <<
-----2-3-4----|


 

Verse: Elektrische gitaar

Rhy. Fig. 1                                     End Rhy. Fig. 1

  Am            Dm            G             *

E|-------0-------------1---------------3-----------------------|

B|---------1---------3---3---------------3---------------------|

G|-----2-----2-----2-------2---------0-----0-------0-----0-----|

D|---2---------0-0-----------------0-------------0-----0-------|

A|-0-------------------------0---2-----------0-3-----2-----3-2-|

E|-----------------------------3-------------------------------|

 

Rhy. Fill 1          End Rhy. Fill 1

  C       G/B     Am      G

E|----------------------------------|

B|-------1-------3-------1----------|

G|-----0-------0-------2---------0--|

D|---2-------0-------2---------0----|

A|-3-------2-------0---------2------|

E|-------------------------3--------|


More info