• Streaming gitaar liedjes spelen
  • Leer gitaar spelen & gitaarlessen
  • 75.000 leden
D
E:|--------------15----14-----|--------------15----14-----|
B:|-----15--------------------|-----15--------------------|
G:|--------14-12----14----14--|--------14-12----14----14--|
D:|--12-----------------------|--12-----------------------|
A:|---------------------------|---------------------------|
E:|---------------------------|---------------------------|
    C                        
E:|--------------15----14-----|--------------15----14-----|
B:|-----15--------------------|-----15--------------------|
G:|--------14-12----------14--|--------14-12----------14--|
D:|--14-----------------------|--14-----------------------|
A:|---------------------------|---------------------------|
E:|---------------------------|---------------------------| 

2 keer spelen , dan naar het andere stuk
 
    G                              
E:|--------------15----14-----|--------------15----14-----|
B:|-----15--------------------|-----15--------------------|
G:|--12----14-12----14----14--|--12----14-12----14----14--|
D:|---------------------------|---------------------------|
A:|---------------------------|---------------------------|
    D
E:|--------------15----14-----|--------------15----14-----|
B:|-----15--------------------|-----15--------------------|
G:|--------14-12----14----14--|--------14-12----14----14--|
D:|--12-----------------------|--12-----------------------|
A:|---------------------------|---------------------------|
E:|---------------------------|---------------------------|
 
    

    D
E:|--------------15----14-----|--------------15----14-----|
B:|-----15--------------------|-----15--------------------|
G:|--------14-12----14----14--|--------14-12----14----14--|
D:|--12-----------------------|--12-----------------------|
A:|---------------------------|---------------------------|
E:|---------------------------|---------------------------! 
    C
E:|--------------15----14-----|--------------15----14-----|
B:|-----15--------------------|-----15--------------------|
G:|--------14-12----------14--|--------14-12----------14--|
D:|--14-----------------------|--14-----------------------|
A:|---------------------------|---------------------------|
E:|---------------------------|---------------------------

E:|--------------15----14-----|--------------15----14-----|
B:|-----15--------------------|-----15--------------------|
G:|--12----14-12----14----14--|--12----14-12----14----14--|
D:|---------------------------|---------------------------|
A:|---------------------------|---------------------------|
E:|---------------------------|---------------------------< 

E:|--12------------12----14---|--15----14----12---------------14---|
B:|---------15----------------|---------------------15--------15---|
G:|-----14------14----14---14-|-----14----14----14------14----14---|
D:|---------------------------|------------------------------------| 
A:|---------------------------|------------------------------------| 
E:|---------------------------|------------------------------------| 



Chorus: 
   A5                          C5 
E:|---------------------------|--------------12----10-----|
B:|--14-14-------15----14-----|--13-13--------------------|
G:|--------14-------14----14--|--------12-10----12----12--|
D:|-----------14--------------|---------------------------|
A:|---------------------------|---------------------------|
E:|---------------------------|---------------------------| 
   D5                          D5
E:|--------------15----14-----|--------------15---14-----|
B:|-----15--------------------|-----15-------------------|
G:|--------14-12----14----14--|--------14-12---14----14--|
D:|--12-----------------------|--12----------------------|
A:|---------------------------|--------------------------|
E:|---------------------------|--------------------------| 
   A5                          C5
E:|---------------------------|--------------12----10-----|
B:|--14-14-------15----14-----|--13-13--------------------|
G:|--------14-------14----14--|--------12-10----12----12--|
D:|-----------14--------------|---------------------------|
A:|---------------------------|---------------------------|
E:|---------------------------|---------------------------|
   D5                          D5
E:|---------------------------|---------------------------|
B:|--------15-----------------|---------------------------|
G:|--12s14--------------------|---------------------------|
D:|---------------------------|---------------------------|
A:|---------------------------|---------------------------|
E:|---------------------------|---------------------------

FILL1:

E:|-------------------------------------------------------------
B:|---10---8--7-----10--8--7----10---8------10---8-----10-\-8---
G:|-------------------------------------9------------9----------|
D:|-------------------------------------------------------------|
A:|-------------------------------------------------------------|
E:|-------------------------------------------------------------|

E:|------------------10--10^--(10)---------------|
B:|-10-^-(10)8--10-^--------------full-----------|
G:|--------------------------------9-^-----------|
D:|-
De rest van dit nummer alleen voor Gitaartabs leden! Maak gratis Gitaartabs account aan . 
Gitaar Tabs

Download, print en speel de Tab ♪ Guns N Roses - Sweet Child O' Mine

Meld je aan en print, download of speel binnen 15 sec mee Tab ♫ Guns N Roses - Sweet Child O' Mine.
Reeds 70.000 gitaristen zijn je voorgegaan.

Gratis Aanmelden Gitaartabs

Comments Guns N Roses - Sweet Child O' Mine - tab

kenworth

Kenworth 2011-11-13

Hoi Lars2,

je bent zo god bezig en heb ik er toch een waar geen tekst bij zit  ;-)

Wil je deze even toevoegen?, alvast erg bedankt, we willen volledige tabs leveren aan onze leden, vandaar.


kenworth

Kenworth 2011-11-13

Ik zie dat er al een is en die is precies het zelfde, overgens ook zonder tekst.
Dus deze laten we vervallen en die andere sturen we even een bericht.


larse2

Larse2 2011-11-13

ik regel dat volgende week wel even oke? ik heb nog een paar anderen tabs die ik wil posten!