• Streaming gitaar liedjes spelen
  • Leer gitaar spelen & gitaarlessen
  • 75.000 leden
Tune je gitaar een halve toon lager

Intro

Gitaar 1
E|----------------------|
B|----------------------|
G|-44--444----4---------|
D|----------------------|
A|----------------------|
E|----------------------|

E|------------------------------------------|
B|------------------------------------------|
G|-4----4--2----2---------------------------|
D|-----------------4----4--2----2-0---------|   x6
A|-------------------------------------2----|
E|------------------------------------------|

E|--------------------------|
B|--------------------------|
G|--444-222-----------------|
D|----------444-222-00------|   x3
A|---------------------2-2--|
E|--------------------------|
 
E|----------------------------------------------------------------------|
B|----------------------------------------------------------------------|
G|---7--------4---4---4---4---4---4---4---4---4---4---4---4---4---4--\2-|
D|---7---7----4---4---4---4---4---4---4---4---4---4---4---4---4---4--\2-|
A|---5---7----2---2---2---2---2---2---2---2---2---2---2---2---2---2--\0-|
E|-------5--------------------------------------------------------------|
Pm            .   .   .   .   .   .   .   .   .   .   .   .   .   

E|--------------------------|---------------------------|
B|--------------------------|---------------------------|
G|--------------------------|---------------------------|
D|--------------------------|---------------------------|
A|-7--7--5--7--7--7-5--4--2-|-7--7--5--7--7--7--5--4--2-|
E|-5--5--3--5--5--5-3--2--0-|-5--5--3--5--5--5--3--2--0-|


Guitar 2
E|------------------------------------7--7/5--5-0---------|
B|------------------------------------7--7/5--5-0---7-----|
G|------------7-9-9b---7----------------------------7--6--|
D|---7h9--9-----------------7h9—9/2-----------------5--7--|
A|-----------------------------------------------------7--|
E|-----------------------------------------------------5--|

E|------------------------------------5--5------------|
B|-----------------------3---5-----5b----5b---3-------|
G|----------------2--4----------------------------4\--|
D|---------2--4---------------------------------------|
A|--2--4----------------------------------------------|
E|----------------------------------------------------|

E|-----------
De rest van dit nummer alleen voor Gitaartabs leden! Maak gratis Gitaartabs account aan . 
Gitaar Tabs

Download, print en speel de Tab ♪ Guns N Roses - Welcome To The Jungle

Meld je aan en print, download of speel binnen 15 sec mee Tab ♫ Guns N Roses - Welcome To The Jungle.
Reeds 70.000 gitaristen zijn je voorgegaan.

Gratis Aanmelden Gitaartabs