• Streaming gitaar liedjes spelen
  • Leer gitaar spelen & gitaarlessen
  • 80.000 leden
Tuning: Drop D (DADGBe)

### INTRO RIFF 1 ### 00:26 ###
e|----------------------------------------|---------------------------------------|
B|--------3---------------2-------2----|--------3-----------------------------|
G|------4---------7-----2-------2----|------4---------7-------1-------1---|
D|----4---------5-----2-------2------|----4---------5-------2-------2-----|
A|--2---------5-----0-------0--------|--2---------5-------2-------2-------|
D|----------5---------------------------|----------5-------2-------2----------|


### INTRO RIFF 2 ### 00:37 ###
e|----------------------------------------------------------------------------------|
B|----------------------------------------------------------------------------------|
G|----------------------------------------------------------------------------------| (2x)
D|--0-------------4-4-------------5-5-----------------7--7-------------------|
A|--0--5--4--5-4-4-5-5-4-4-5-5-5--5-4-4-5-7--7-9-9-7-7-5~--|
D|--0-------------4-4-------------5-5-----------------7--7-------------------|



### VERSE ### 00:50 ###
e|------------------------------------------------------|
B|------------------------------------------------------|
G|--7--------------------------------------------------| (2x)
D|--7-(8x)------4-(8x)----5-(8x)------7-(8x)--|
A|--5-------------4----------5-------------7---------|
D|-----------------4----------5-------------7---------| (pm)


### PRE-CHORUS ### 01:02 ###
e|----------------------|------------------------|-----------------------|-------------------------|
B|----------------------|------------------------|-----------------------|-------------------------|
G|--4------4----4----|--6------6-----6-6--|--7------7------7--|--9-------9---9-9-9--|
D|--4------4----4----|--6------6------6-6--|--7------7------7--|--9------9---9-9-9--|
A|--2--2--2--2--2--|--4--4--4--4--4-4--|--5--5--5--5--5--|--7--7--7---7-7-7--|
D|----------------------|-------------------------|----------------------|-------------------------|

e|----------|---------------------------------|----------|--------------------------|
B|----------|---------------------------------|----------|--------------------------|
G|----------|---------------------------------|----------|--------------------------|
D|--5------|----5-5-5-5-5-5-5---------|--7------|----7-7-7-7-7-7-7--|
A|--5------|----5-5-5-5-5-5-5---------|--7------|----7-7-7-7-7-7-7--|
D|--5------|----5-5-5-5-5-5-5-(pm)-|--7------|----7-7-7-7-7-7-7--|


### CHORUS ### 01:13 ###
e|------------------------------------------------------|------------------------------------------------------------|
B|------------------------------------------------------|------------------------------------------------------------|
G|------------------------------------------------------|------------------------------------------------------------|
D|--0--0-7--7-7-7-10--10-5--5-5-5--(2x)--|--0--0-7--7-7-7-10--1
>> Registreer, speel & download <<
Meld nu aan en speel de rest van Hannah Montana - Rock Star

>> Registreer, speel & download <<
0-5--5-5-5--5(7x)-7--|
A|--0--0-7--7-7-7-10--10-5--5-5-5----------|--0--0-7--7-7-7-10--10-5--5-5-5--5------7--|
D|--0--0-7--7-7-7-10--10-5--5-5-5----------|--0--0-7--7-7-7-10--10-5--5-5-5--5------7--|


### INTERLUDE ### 01:26 ###
e|--------------------------------------|------------------------------------|
B|--------------------------------------|------------------------------------|
G|--------------------------------------|------------------------------------|
D|--0--4-2--4--0--5-4--2-4-2--|--0--4-2--4--0--5-4-2~------|
A|--------------------------------------|-------------------------------------|
D|--------------------------------------|-------------------------------------|

### VERSE ### 01:31 ###

### PRE-CHORUS ### 01:43 ###

### CHORUS ### 01:55 ###


### INTRO RIFF 1 ### 02:07 ###
                           e|---------------------|
                           B|---------------------|
.. like before  +   G|--------7-------9--|
                           D|------5-------7----|
                           A|----5-------7------|
                           D|--5-------7--------|


### INTRO RIFF 2 ### 02:22 ###


### SOLO ### 02:34 ### Is vermakkelijkt
e|--------------------------------------------|----------------------------------------------------|
B|--------------------------------------------|------------10--------------------10------------|
G|--9b--9b--9b--9b--9b-9-7-9-7--|--9-7-9b-----9-7-9-7-9-9b----9-7---7--|
D|--------------------------------------------|----------------------------------------------9-----|
A|--------------------------------------------|-----------------------------------------------------|
D|--------------------------------------------|-----------------------------------------------------|

e|--7-5---5--7-5---5--7-5-7-10~--|--15--13-----------------------------------|
B|--------7--------7-----------------------|------------15--13-------------------------|
G|-------------------------------------------|----------------------14-12----------------|
D|-------------------------------------------|-------------------------------14-12-------|
A|-------------------------------------------|----------------------------------------14\--|
D|-------------------------------------------|-----------------------------------------------|


### CHORUS ### 02:46 ###

                          e|---------------|-------------------|
                           B|--------------|-------------------|
.. like before  +   G|---------------|-------------------|
                           D|--5(8x)-7--|----7-7-7-7-7-7-7--|
                           A|--5-------7--|----7-7-7-7-7-7-7--|
                           D|--5-------7--|----7-7-7-7-7-7-7--|


### INTERLUDE ### 03:02 ###  (2x !!)


### ENDING ### 3:14 ###

e|------------------|
B|------------------|
G|------------------|
D|------------------|
A|--5~~~--------|
D|------------------|

More info

Meer Hannah Montana songs

Hannah Montana - Rock Star