• Streaming gitaar liedjes spelen
  • Leer gitaar spelen & gitaarlessen
  • 75.000 leden
Home Improvement

O.K. so I'm bored.

e----------------------------------------------------
B----------------------------------------------------
G----------------------10----------------------------
D-----10-12--x-x-12-12----------10-12--x-x-12-12-10--
A--12------------------------12----------------------
E----------------------------------------------------

e----------------------------------------------------
B----------------------------------------------------
G----------------------10---/12-10----10------------
D-----10-12--x-x-12-12-------------12----12-x-x------
A--12------------------------------------------------
E----------------------------------------------------

e----------------------------------------------------
B-------------------10-------------------------------
G-----10-12---10-12-----12\10----10------------------
D--12-------------------------12----12---x-x---------
A----------------------------------------------------
E----------------------------------------------------

De rest van dit nummer alleen voor Gitaartabs leden! Maak gratis Gitaartabs account aan . 
Gitaar Tabs

Download, print en speel de Tab ♪ Home Improvement - Home Improvement

Meld je aan en print, download of speel binnen 15 sec mee Tab ♫ Home Improvement - Home Improvement.
Reeds 70.000 gitaristen zijn je voorgegaan.

Gratis Aanmelden Gitaartabs

Artiesten

Home Improvement

Song information

Naam: Home Improvement
Album:
Notatie: Tab (TAB)
Category: TV- film themes
Niveau: 2/10

Statistiek

Downloads: 2.160
Commentaren:

Credits

Geplaat door: JanH
Geschreven door: Gitaartabs
Datum: 2006-10-18

Meer Home Improvement songs

Home Improvement - Home Improvement