• Streaming gitaar liedjes spelen
  • Leer gitaar spelen & gitaarlessen
  • 75.000 leden
Title: Let It Go / Laat Het Los
SubTitle: Frozen
Artist: Idina Menzel
Album: Frozen
Tabber: Vicsgitaarschool & Gitaartabs
Tempo = 120

Legend
L - tied note
x - dead note
h - hammer on/pull off
b - bend
s - slide
~ - vibrato
g - ghost note
> - accentuated note
t - trill
M - palm mute
. - staccato
P - popping (bass)
S - slapping (bass)
+ - tapping
W - wide vibrato
< - fade in
w - whammy bar
= - tremolo picking
v - brush up
^ - brush down
V - pick stroke up
n - pick stroke down


E |--0-----0-----0-----0--0----|--0-------------------------|
B |----------------------------|-----3--1--1-----------1----|
G |----------------------------|--------------------2-------|
D |----------------------------|----------------------------|
A |----------------------------|----------------------------|
E |----------------------------|----------------------------|


----------------------------|-------|--0--0--0--0L-0--3L-3--3L---|
--3--3-----1-----1----------|-------|----------------------------|
--------------------2L------|--2----|----------------------------|
----------------------------|-------|----------------------------|
----------------------------|-------|----------------------------|
----------------------------|-------|----------------------------|


--3--1L-1-------------------|----------------------------|-------|
--------------------1--1----|--3--3-----3-----1----------|-------|
----------------------------|-----------------------2L---|--2----|
----------------------------|----------------------------|-------|
----------------------------|----------------------------|-------|
----------------------------|----------------------------|-------|


--------0--0-----3-----5L---|--5--1L-1--0-----3-----1L---|
----------------------------|----------------------------|
----------------------------|----------------------------|
----------------------------|----------------------------|
----------------------------|----------------------------|
----------------------------|----------------------------|


--1--1-----1-----------0L---|--0----|--------0--0----------------|
--------------------3-------|-------|--------------3--1L-1--3L---|
----------------------------|-------|----------------------------|
-----
De rest van dit nummer alleen voor Gitaartabs leden! Maak gratis Gitaartabs account aan . 
Gitaar Tabs

Download, print en speel de Tab ♪ Idina Menzel - Let It Go / Laat Het Los

Meld je aan en print, download of speel binnen 15 sec mee Tab ♫ Idina Menzel - Let It Go / Laat Het Los.
Reeds 70.000 gitaristen zijn je voorgegaan.

Gratis Aanmelden Gitaartabs

Artiesten

Idina Menzel

Song information

Naam: Let It Go / Laat Het Los
Album:
Notatie: Tab (TAB)
Category: TV- film themes
Niveau: 2/10

Statistiek

Downloads: 5.224
Commentaren: 1 Comment

Credits

Geplaat door: Vic Van Den Bosch
Geschreven door: Vicsgitaarschool.nl
Datum: 2016-01-10

Comments Idina Menzel - Let It Go / Laat Het Los - tab

Luce

Luce 2019-02-02

Ik snap niet wat ik moet doen sorry😊


Meer Idina Menzel songs

Idina Menzel - Let It Go / Laat Het Los