• Streaming gitaar liedjes spelen
  • Leer gitaar spelen & gitaarlessen
  • 75.000 leden
Title: Winter Of Love
SubTitle: for easy guitar
Artist: Ilse De Lange
Copyright: www.vicsgitaarschool.nl
Tabber: Vic van den Bosch
Tempo = 123


Legend
L - tied note
x - dead note
h - hammer on/pull off
b - bend
s - slide
~ - vibrato
g - ghost note
> - accentuated note
t - trill
M - palm mute
. - staccato
P - popping (bass)
S - slapping (bass)
+ - tapping
W - wide vibrato
< - fade in
w - whammy bar
= - tremolo picking
v - brush up
^ - brush down
V - pick stroke up
n - pick stroke down


E ||---------------------------|---------------------------||
B ||-0-----0-----0--0-----0----|-----0-----3--2--3--2------||
G ||o--------------------------|-----------------------2--o||
D ||o--------------------------|--------------------------o||
A ||---------------------------|---------------------------||
E ||---------------------------|---------------------------||


--------------0--2----------|-------|--------------0--2----------|
-----0--3--3--------0--3L---|--3----|-----0--3--3--------0--3L---|
----------------------------|-------|----------------------------|
----------------------------|-------|----------------------------|
----------------------------|-------|----------------------------|
----------------------------|-------|----------------------------|


-----------------------5L---|--5--2-----------------5L---|
--3-----3-------------------|-----------3-----0----------|
--------------------2-------|----------------------------|
----------------------------|----------------------------|
----------------------------|----------------------------|
----------------------------|----------------------------|


--5--2-----------------5L---|--5--2-----------------5L---|
-----------3--------0-------|-----------3--------0-------|
----------------------------|----------------------------|
----------------------------|----------------------------|
----------------------------|----------------------------|
----------------------------|------------
De rest van dit nummer alleen voor Gitaartabs leden! Maak gratis Gitaartabs account aan . 
Gitaar Tabs

Download, print en speel de Tab ♪ Ilse De Lange - Winter Of Love

Meld je aan en print, download of speel binnen 15 sec mee Tab ♫ Ilse De Lange - Winter Of Love.
Reeds 70.000 gitaristen zijn je voorgegaan.

Gratis Aanmelden Gitaartabs

Artiesten

Ilse De Lange

Song information

Naam: Winter Of Love
Album:
Notatie: Tab (TAB)
Category: Pop
Niveau: 2/10

Statistiek

Downloads: 3.238
Commentaren:

Credits

Geplaat door: Vic Van Den Bosch
Geschreven door: Vicsgitaarschool.nl
Datum: 2016-01-10