• Streaming gitaar liedjes spelen
  • Leer gitaar spelen & gitaarlessen
  • 80.000 leden
Riff 1
e|-----------------------------|
B|-12--10---8---7--8--7--5---7-|
G|-----------------------------|
D|-----------------------------|
A|-10---9---7---5--7--5--3---5-|
E|-----------------------------|

e|----------------------------|
B|-12--10---8---7--8--7--5--4-|
G|----------------------------|
D|----------------------------|
A|-10---9---7---5--7--5--3--2-|
E|----------------------------|


Riff 2
Guitar 1
e|--------------------------------------------|
B|--------------------------------------------|
G|--------------------------------------------|
D|---------9----------9----------5----------5-|
A|-7-7-7-7-7--7-7-7-7-7--3-3-3-3-3--3-3-3-3-3-|
E|--------------------------------------------|
    * * * *    * * * *    * * * *    * * * * 

e|-----------------------------------------------|
B|-----------------------------------------------|
G|-----------------------------------------------|
D|---------7----------7----------9--5p4----5p4---|
A|-5-5-5-5-5--5-5-5-5-5--7-7-7-7-7------7------5-|
E|-----------------------------------------------|
    * * * *    * * * *    * * * * 

Guitar 2 
e|-10----------------------10----------------------|
B|----13-12-10h12p10---10-----13-12-10h12p10-------|
G|-------------------12----------------------12-11-|
D|-------------------------------------------------|
A|-------------------------------------------------|
E|-------------------------------------------------|

Guitar 3 
e|-----------------------------------------------|
B|-12-10-------------------12-10-----------------|
G|-------12-11h12p11-9-11--------12-11h12p11-9-8-|
D|-----------------------------------------------|
A|-----------------------------------------------|
E|-----------------------------------------------|



Riff 3
e|------------------------------|
B|------------------------------|
G|-----------------4------------|
D|---4-5-4-5-7-5-4----5-4-5-4---|
A|-7--------------------------7-|
E|------------------------------|

e|--------------------------|
B|--------------------------|
G|-------------4------------|
D|-4---4-5-4-5----5-4-5-4---|
A|---7--------------------7-|
E|--------------------------|


Riff 4
e|-------------------------|
B|-------------------------|
G|-------------------------|
D|-9\---------5----------7-|
A|-7\-------5-3--------7-5-|
E|----------3----------5---|

e|------------------------------|
B|------------------------------|
G|------------------------------|
D|---9--------------------------|
A|-9-7--10-10-------7-10-9-7----|
E|-7-----7--8--8-10----------10-|


Riff 5
e|--------------------------------------------------|
B|--------------------------------------------------|
G|--------------------------------------------------|
D|-9------9----------9--9\----------5----------5-5/-|
A|-7--7-7-7--7-7-7-7-7--7\--3-3-3-3-3--3-3-3-3-3-3/-|
E|--------------------------------------------------|
       * *    * * * *        * * * *    * * * * 

e|-----------------------------------------------------|
B|-----------------------------------------------------|
G|-----------------------------------------------------|
D|---------7----------7------9-------------------------|
A|-5-5-5-5-5--5-5-5-5-5--5-5-7--10-10-------7-10-9-7---|
E|-------------------------------7--8--8-10---------10-|
    * * * *    * * * *    * *        

Riff 3

Riff 6 Guitar 1
e|----------------------------------------------|
B|----------------------------------------------|
G|----------4--4------------4-------------4-----|
D|------4-5------5-4----4-5----5-4----4-5---5-4-|
A|-7--7--------------7-------------7------------|
E|----------------------------------------------|

Guitar 2 
e|--------------------------------------------------|
B|--------------------------------------------------|
G|------------7--7-------------7--------------7-----|
D|--------7-9------9-7-----7-9----9-7-----7-9---9-7-|
A|-10--10--------------10-------------10------------|
E|--------------------------------------------------|

e|----------------------------------------------------|
B|----------------------------------------------------|
G|------------/9~--9-------------7--------------7-----|
D|--------7-9--------9-7-----7-9----9-7-----7-9---9-7-|
A|-10--10----------------10-------------10------------|
E|----------------------------------------------------|


Riff 5a
e|---------------------------------------------------|
B|---------------------------------------------------|
G|---------------------------------------------------|
D|---------9----------9--9\----------5----------5-5/-|
A|-7-7-7-7-7--7-7-7-7-7--7\--3-3-3-3-3--3-3-3-3-3-3/-|
E|---------------------------------------------------|
    * * * *    * * * *        * * * *    * * * * 

e|---------------------------------------------------------|
B|---------------------------------------------------------|
G|---------------------------------------------------------|
D|---------7----------7--7/----------9---------------------|
A|-5-5-5-5-5--5-5-5-5-5--5/--7-7-7-7-7--7-7-10-9-7--10-9---|
E|------------------------------------------------------10-|
    * * * *    * * * *        * * * *    * *  * *     * *      

Play Riff 6

Riff 7
Guitar 1
e|------------------------------------|
B|------------------------------------|
G|------------------------------------|
D|-9--------4------------5----------9-|
A|-7--------2-2--------5-3--------9-7-|
E|------------0--------3-3--------7---|

Guitar 2
e|-----------------------|
B|---12---------12-------|
G|-9----11-12-9----11-12-|
D|-----------------------|
A|-----------------------|
E|-----------------------|


Riff 8
e|-----------------------------|
B|-----------------------------|
G|-----------4-----------------|
D|---4-5-4-5---5-4-5-4-----5-7-|
A|-7-------------------7-5-3-5-|
E|-----------------------------|
    * * * * * * * * * * * *

Riff 9  Rythm for solo
e|---------------------------------|
B|---------------------------------|
G|---------------------------------|
D|-9-----9-----9-----9-----9-9-9-9-|
A|-7-7-7-7-7-7-7-7-7-7-7-7-7-7-7-7-|
E|---------------------------------|
      * *   * *   * *   * * 
e|-----------------------------|
B|-----------------------------|
G|-----------------------------|
D|-9-----9-----9--5p4----------|
A|-7-7-7-7-7-7-7------5\-3p2---|
E|---------------------------3-|
      * *   * *
e|---------------------------------|
B|---------------------------------|
G|---------------------------------|
D|-7-----7-----7-----7-----7-7-7-7-|
A|-5-5-5-5-5-5-5-5-5-5-5-5-5-5-5-5-|
E|---------------------------------|
      * *   * *   * *   * * 
e|-----------------------------|
B|-----------------------------|
G|-----------------------------|
D|-7-----7-----7--5p4----------|
A|-5-
>> Registreer, speel & download <<
Meld nu aan en speel de rest van Iron Maiden - Hallowed Be Thy Name

>> Registreer, speel & download <<
5-5-5-5-5-5------5\-3p2---|
E|---------------------------3-|
      * *   * *


Riff 10 
e|---------------------------------|
B|---------------------------------|
G|---------------------------------|
D|-9-----9-----9-----9-----9-9-9-9-|
A|-7-7-7-7-7-7-7-7-7-7-7-7-7-7-7-7-|
E|---------------------------------|
      * *   * *   * *   * * 
e|-------------------------------|
B|-------------------------------|
G|-------------------------------|
D|-9-----9-----9-----9-----9-9-9-|
A|-7-7-7-7-7-7-7-7-7-7-7-7-7-7-7-|
E|-------------------------------|
      * *   * *   * *   * * 

Riff 10a 
e|---------------------------|
B|---------------------------|
G|---------------------------|
D|-5~----------5~----------9-|
A|-a---7-5~--7-a---7-5~--7-7-|
E|-------a-----------a-------|
     
e|-----------------------------------|
B|-----------------------------------|
G|-----------------------------------|
D|-9-9-----9-----9-----9-----9-9-9-9-|
A|-7-7-7-7-7-7-7-7-7-7-7-7-7-7-7-7-7-|
E|-----------------------------------|
        * *   * *   * *   * * 
e|---------------------------|
B|---------------------------|
G|---------------------------|
D|-9-----9-----9-----9-----9-|
A|-7-7-7-7-7-7-7-7-7-7-7-7-7-|
E |---------------------------|
      * *   * *   * *   * * 

e|-----------------------------|
B|-----------------------------|
G|-----------------------------|
D|-9-----9-----9-9-9-9-9-9-9---|
A|-7-7-7-7-7-7-7-7-7-7-7-7-7-5-|
E|-----------------------------|
      * *   * *  


Riff 3a
Guitar 1
e|------------------------------|
B|------------------------------|
G|-----------------4------------|
D|---4-5-4-5-7-5-4----5-4-5-4---|
A|-7--------------------------7-|
E|------------------------------|

e|--------------------------|
B|--------------------------|
G|-------------4------------|
D|-4---4-5-4-5----5-4-5-4---|
A|---7--------------------7-|
E|--------------------------|

Guitar 2
e|--------------------------------|
B|--------------------------------|
G|-------------------7------------|
D|----7-9-7-9-10-9-7----9-7-9-7---|
A|-10--------------------------10-|
E|--------------------------------|

e|----------------------------|
B|----------------------------|
G|--------------7-------------|
D|-7----7-9-7-9----9-7-9-7----|
A|---10--------------------10-|
E|----------------------------|


Riff 3b
Guitar 1
e|------------------------------|
B|------------------------------|
G|-----------------4------------|
D|---4-5-4-5-7-5-4----5-4-5-4---|
A|-7--------------------------7-|
E|------------------------------|

e|--------------------------|
B|--------------------------|
G|-------------4------------|
D|-4---4-5-4-5----5-4-5-4---|
A|---7--------------------7-|
E|--------------------------|

e|------------------------------|
B|------------------------------|
G|-----------------4------------|
D|---4-5-4-5-7-5-4----5-4-5-4---|
A|-7--------------------------7-|
E|------------------------------|

Guitar 2
e|--------------------------------|
B|--------------------------------|
G|-------------------7------------|
D|----7-9-7-9-10-9-7----9-7-9-7---|
A|-10--------------------------10-|
E|--------------------------------|

e|----------------------------|
B|----------------------------|
G|--------------7-------------|
D|-7----7-9-7-9----9-7-9-7----|
A|---10--------------------10-|
E|----------------------------|

e|--------------------------------|
B|--------------------------------|
G|-------------------7------------|
D|----7-9-7-9-10-9-7----9-7-9-7---|
A|-10--------------------------10-|
E|--------------------------------|

Both Guitars:
e|----------------------------|
B|----------------------------|
G|----------------------------|
D|-9--------------------------|
A|-7--10-10-------7-10-9-7----|
E|-----7--8--8-10----------10-|



Riff 2a
e|--------------------------------|
B|--------------------------------|
G|--------------------------------|
D|-9-----9-----9----5-----5-----5-|
A|-7-7-7-7-7-7-7----3-3-3-3-3-3-3-|
E|--------------------------------|
      * *   * *        * *   * *   

e|--------------------------------|
B|--------------------------------|
G|--------------------------------|
D|-7-----7-----7----9-----9-----9-|
A|-5-5-5-5-5-5-5----7-7-7-7-7-7-7-|
E|--------------------------------|
      * *   * *        * *   * *   

e|--------------------------------|
B|--------------------------------|
G|--------------------------------|
D|-9-----9-----9----5-----5-----5-|
A|-7-7-7-7-7-7-7----3-3-3-3-3-3-3-|
E|--------------------------------|
      * *   * *        * *   * *   
   "Yeah...."
e|---------------|
B|---------------|
G|---------------|
D|-7-----7-----7-|
A|-5-5-5-5-5-5-5-|
E|---------------|
      * *   * *   

Riff 7a
Guitar 1
e|-------------------------------------------------|
B|-------------------------------------------------|
G|-------------------------------------------------|
D|--------------7----------5----------7------------|
A|-2-2--------7-5--------5-3--------7-5--------2-2-|
E|---0--------5-5--------3-3--------5-5----------0-|

Guitar 2
e|-----------------------|
B|---12---------12-------|
G|-9----11-12-9----11-12-|
D|-----------------------|
A|-----------------------|
E|-----------------------|

e|-------------------------------------|
B|-------------------------------------|
G|-------------------------------------|
D|-------------------9-9-9-9--9-9-9-9\-|
A|-22222222-----2----7-7-7-7--7-7-7-7\-|
E|-00000000-----0----------------------|

Tekst:
Im waiting in my cold cell when the bell begins to chime
Reflecting on my past life and it doesnt have much time
Cos at 5 oclock they take me to the gallows pole
The sands of time for me are running low

When the priest comes to read me the last rites
I take a look through the bars at the last sights
Of a world that has gone very wrong for me

Can it be theres some sort of error
Hard to stop the surmounting terror
Is it really the end not some crazy dream

Somebody please tell me that Im dreaming
Its not so easy to stop from screaming
But words escape me when I try to speak
Tears they flow but why am I crying
After all I am not afraid of dying
Dont believe that there is never an end

As the guards march me out to the courtyard
Someone calls from a cell God be with you
If theres a God then why has he let me die?

As I walk all my life drifts before me
And though the end is near Im not sorry
Catch my soul cos its willing to fly away

Mark my words please believe my soul lives on
Please dont worry now that I have gone
Ive gone beyond to see the truth

When you know that your time is close at hand
Maybe then youll begin to understand
Life down there is just a strange illusion.

More info