• Streaming gitaar liedjes spelen
  • Leer gitaar spelen & gitaarlessen
  • 80.000 leden
Setting   : E-A-D-G-B-E

D     xx0232
A     x02220
Bm    x24432
F     133211
G     320003
C     x32010
Em    022000


          ==>> CAPO OP 3  <<==


Intro: 
   Em      Bm       D       A 
E|-3-----3-2--------2-----2-0------||
B|---5-------3--------3-------2----||
G|-----4-------4--------2-------2--|| x4
D|---------------------------------||
A|---------------------------------||
E|---------------------------------||



Em              Bm 
She said to me:  go steady on me,
D                          A
Won't you tell me what the Wise Men said 
          Em
when they came down from Heaven,
Bm
Smoked nine `till seven,
D            A
All the shit that they could find,
Em
But they couldn't escape from you,
Bm
Couldn't be free of you,
D            A
And now they know there's no way out,
            Em                   Bm
And they're really sorry now for what they've done,
          D                             A
They were three Wise Men just trying to have some fun,



CHORUS: 

Am         C                   G            D    
Look who's alone now, it's not me, it's not me,
Am               C                   G         D
Those three Wise Men they've got a semi by the sea,
Am         F                      G             D
Got to ask yourself the question, where are you now?
Am        F                      G             D
Got to ask yourself the question, where are you now?



Em                Bm 
Really sorry now, they weren't to know
         D                 A
They got caught up in your talent show,
          Em                                Bm
With you pernickety little bastards in your fancy dress,
         D                    A
Who just judge each other and try to impress,


         Em                        Bm 
But they couldn't escape from you, couldn't be free of you,
    D        A
And now they know there's no way out,


            Em                   Bm
And they're really sorry now for what they've done,
               D                             A
They were just three Wise Men just trying to have some fun,

CHORUS

Am C X4



Solo Tab
NOT ACCORDING TO CAPO 
where it says 8 etc simply play 8 on guitar

    Am        C             G            D
--------------------------------8-6b
^-8--------------------------------------|
----------------------------6-8----------6-4---6-4---------------------------|
----8b^-5-----5-8----5-8---------------------5-----5-------------------------|
----------8------------------------------------------------------------------|
-----------------------------------------------------------------------------|
-----------------------------------------------------------------------------|

    Am        C           G          D
--------------11-11/10-10/8-8/6---6-6/8-8-8------------------------------|
----------11--------------------8----------------------------------------|
----8b^-5----------------------------------------------------------------|
-------------------------------------------------------------------------|
-------------------------------------------------------------------------|
-------------------------------------------------------------------------|
   Am           C                   G           D
-------------11-11-11-11-10-10-8---11b^11b^-11----------------------------|
------------------------------------------------13-11-13b^-13-------------|
--------------------------------------------------------------------------|
-------5------------------------------------------------------------------|
--------------------------------------------------------------------------|
--------------------------------------------------------------------------|
   Am     C            G                  D
--------------------------------------------------------------------------|
------------------------------------------11-11---13-13-13^-^-^-----------|
----8--5-------------5------8-5-8----12-----------------------------------|
----------5--8-8-8------5/8-----------------------------------------------|
--------------------------------------------------------------------------|
--------------------------------------------------------------------------|



G             D
Where are you now?
G             D
Where are you now?
Am        F
Got to ask yourself the question,
G             D
Where are you now?                              


G             D
Where are you now?
G             D
Where are you now?
Am        F
Got to ask yourself the question,
G             D
Where are you now?   




More info