• Streaming gitaar liedjes spelen
  • Leer gitaar spelen & gitaarlessen
  • 75.000 leden
Nog 10 tab te gaan voor deze maand.
*****************************************************************
  DE BOVENSTE VERSIE IS MET CAPO OP 8, DE ONDERSTE IS MET CAPO OP 3 
  *****************************************************************



Guitar 1 (strum):  capo 8
(Akkoorden relatief aan capo)

G       [ 3 2 0 0 3 3 ]
G/F#    [ 2 - 0 0 3 3 ]
Em7     [ 0 2 2 0 3 3 ]
Cadd9   [ - 3 2 0 3 3 ]
D/F#    [ 2 0 0 2 3 2 ]
D       [ x x 0 2 3 2 ]
A7sus4  [ - 0 2 2 3 3 ]

Guitar 2 (riff1): Geen capo

e |------------------|------------------|------------------|------------------|
B |------------------|------------------|------------------|------------------|
G |------------------|------------------|------------------|------------------|
D |-5-5-3-5---3-5----|------------------|-5-5-3-5---3-5----|-6-6-5-6---5-6----|
A |------------------|-5-5-3-5---3-5----|------------------|------------------|
E |------------------|------------------|------------------|------------------|

Guitar 3 (riff2): Geen capo

e |------------------|------------------|------------------|------------------|
B |------------------|---------6~-------|------------------|------------------|
G |---8-7-8~---------|---8-7-8----------|-8~--7-8~---------|------------------|
D |-5----------------|-5----------------|------------------|-5--6-------------|
A |------------------|------------------|------------------|------------------|
E |------------------|------------------|------------------|------------------|

Kan eventueel ook zo:

e |------------------|---------1~-------|------------------|------------------|
B |---4-3-4~---------|---4-3-4----------|-4---3-4~---------|------------------|
G |-0----------------|-0----------------|------------------|-0--1~------------|
D |------------------|------------------|------------------|------------------|
A |------------------|------------------|------------------|------------------|
E |------------------|------------------|------------------|------------------|


[intro]

(riff1)     G   G/F#   Em7   Cadd9   
(riff 1+2)  G   G/F#   Em7   Cadd9   
(riff 1+2)  G                      G/F#   Em7  Cadd9
             My life is brilliant

[verse 1]
G
  My life is brilliant
G/F#
  My love is pure
Em7
  I saw an angel
Cadd9
  Of that I'm sure

(riff1)
    G
De rest van dit nummer alleen voor Gitaartabs leden! Maak gratis Gitaartabs account aan . 
Gitaar Tabs

Download, print en speel de Tab ♪ James Blunt - You're Beautiful

Meld je aan en print, download of speel binnen 15 sec mee Tab ♫ James Blunt - You're Beautiful.
Reeds 70.000 gitaristen zijn je voorgegaan.

Gratis Aanmelden Gitaartabs

Wat vind jij van deze song? James Blunt - You're Beautiful

Comments James Blunt - You're Beautiful - tab

immy&irene

Immy&irene 2010-12-31

Hee,

Ik wil het liedje graag spelen maar ik heb geen Capo en ik ben in mij 1tje.

Heeft iemand een versie die ik alleen en zonder Capo kan spelen??


xXJess

XXJess 2009-11-11

Noellie, kijk naar http://www.youtube.com/watch?v=GyCFjyjPPVM, zo kom je ook aan de slag.
Het begin is: v  v  v^  v^  v^v en dat per akkoord, wanneer het wat sneller gaat moet je maar in het filmpje zien ;)


xXJess

XXJess 2009-11-05

ik zou ook wel de aanslag willen weten...


noellie

Noellie 2009-08-21

zou iemand ook de slag kunnen vertellen? kom der ff niet uit


Manon33

Manon33 2008-11-26

Hij is tof


marco473

Marco473 2008-11-25

vind dit een supermooi nr. alleen is de intro idd niet goed.
toch wel leuk om de intro zo te spele


gitaarsnaar

Gitaarsnaar 2008-09-06

^
Dat weet ik niet zeker. Inderdaad klinkt de tab die JVOH hier neerzet ook goed, maar de tab die er al staat (de "kan eventueel ook"Knipoog klinkt ook goed Ik weet het niet Ik zal morgen eens rondkijken of ik de absolute goede kan opsporen.

EDIT:
Intro Lead:

e|------------------------------|------------------------------|
B|---1-0-1----1-0-1-3--1-0-1----|---1-0-1----1-0-1-3--1-0-1----|
G|-0--------0-------------------|-0--------0-------------------|
D|---------------------------2-3|---------------------------2-3|
A|------------------------------|------------------------------|
E|------------------------------|------------------------------|

^Zo staat het op ultimate en zo klinkt het idd wel goed


JVOH

JVOH 2008-08-15

Hee!Lachen

Het intro klopt volgens mij niet helemaal.

e |--------------------------------|
B |---1-0-1---1-0-1-3--1-0-1-------|
G |-0-------0----------------------| 2x
D |--------------------------2-3---|
A |--------------------------------|
E |--------------------------------|



Tess

Tess 2008-02-05

Met capo 8 is goed Lachebek
Met capo 3 is ook goed
Maar met capo 8 vind ik wel iets makkelijker
Handig dat er meer versies opstaan en met meerdere gitaren.
Maar waarom ik dit berichtje ging typen was om de vraag:
Waarom is dit Nederpop!?


AraneaNiké

AraneaNiké 2008-01-31

Geweldig nummer, echt mooi om te spelen, ik ga het direct proberen, Knipoog
Liefs. x


kenny

Kenny 2007-05-31

ja, hij is wel mooi enzo, maar ik luisterde hem altijd met mijn exvriendje, nu mijn exvriendje dan he... Ik weet het niet


Gerard

Gerard 2006-12-27

Een fantastisch gitaar nummer en het leuke is dat deze nog niet eens zo heel moeilijk is ook Lachen

[url=http://www.youtube.com/watch?v=iFKcSFN8tPU]You're Beautiful - James Blunt[/url]

suc6 Lachen


Plaats opmerkingen e.o. suggestie voor James Blunt - You're Beautiful