• Streaming gitaar liedjes spelen
  • Leer gitaar spelen & gitaarlessen
  • 80.000 leden
JASON MRAZ  - I WON'T GIVE UP (TAB)

CAPO 2
veel plezier!


 Intro
e|-------------------------------------------------------------------------------|
B|-------------------------------------------------------------0h2------------|
G|---------------4-4---2-2---2-2--------------------2-2-2--2---2----------|
D|0-0-0---2-4----5-5---0-0---0-0—--x3---0-0-0--2-4--2-2-2--2--------|
A|---------------5---5-----0------------------------0----0---0----------------|
E|--------------------------------------------------------------------------------|


e|--------------------------------------------------------|
B|--------------------------------------------------------|
G|-2------------------------------------------------------|
D|-2------------------------------------------------------|x2
A|---0----------------------------------------------------|
E|--------------------------
>> Registreer, speel & download <<
Meld nu aan en speel de rest van Jason Mraz - I Won't Give Up (tab)

>> Registreer, speel & download <<
------------------------------|

Refrein
e|------------------------------------------------------------------|
B|-------------------------------------------------------------0h2-------------|
G|---------------4-4---2-2---2-2--------------------2-2-2--2---2-----------|
D|0-0-0---2-4----5-5---0-0---0-0—--x3---0-0-0--2-4--2-2-2--2--------|
A|---------------5---5-----0------------------------0----0---0----------------|
E|--------------------------------------------------------------------------------|


e|---------------------------------------------------------|
B|---------------------------------------------------------|
G|-2-------------------------------------------------------|
D|-2--------------------------------------------------------| x2
A|---0------------------------------------------------------|
E|-----------------------------------------------------------|

More info

Comments Jason Mraz - I Won't Give Up (tab) - tab

darm87

Darm87 2012-04-09

volgens mijn klopt de intro niet echt. Er moeten nog een paar nootjes tussen, of ligt dat aan mij?


kenworth

Kenworth 2012-02-28

Nu de tekst nog.......


kenworth

Kenworth 2012-02-26

We willen graag de tekst erbij hebben.
Dan kan het lid beter de song leren.
Zoals bij die regel/woord komt dat of dit, snap je.

Zo bieden we goed materiaal aan en dat willen we graag.
En je zegt dat het in tabs is, maar je schrijft in akkoorden, kan je dat gelijk goed zetten.
Alvast bedankt