• Streaming gitaar liedjes spelen
  • Leer gitaar spelen & gitaarlessen
  • 75.000 leden
Ok.. Deze is lastig. 
Vooral het ritme zullen velen van jullie niet doorkrijgen in het begin, aangezien na de eerste van elke maat ze even stoppen. However, jullie kunnen me altijd om hulp vragen..
Suc6

e:-----------------|-----------------|-----------------|-----------------|
B:-1---------1-----|-0---------0-----|-3---------0-----|-1---------1-----|
G:-------0-------0-|-------0-------0-|-------0-------0-|-------0-------0-|
D:-----2-------2---|-----2-------2---|-----2-------2---|-----2-------2---|
A:-3-------3-------|-3-------3-------|-3-------3-------|-3-------3-------|
E:-----------------|-----------------|-----------------|-----------------|

e:-----------------|-----------------|-----------------|-----------------|
B:-0---------0-----|-3---------3-----|-1---------1-----|-0---------0-----|
G:-------2-------2-|-------2-------2-|-------2-------2-|-------2-------2-|
D:-----2-------2---|-----2-------2---|-----2-------2---|-----2-------2---|
A:-0-------0-------|-0-------0-------|-0-------0-------|-0-------0-------|
E:-----------------|-----------------|-----------------|-----------------|

e:-----------------|-----------------|-----------------|-----------------|
B:-3---------3-----|-1---------1-----|-0---------0-----|-3---------3-----|
G:-------0-------0-|-------0-------0-|-------0-------0-|-------0-------0-|
D:-----2-------2---|-----2-------2---|-----2-------2---|-----2-------2---|
A:-3-------3-------|-3-------3-------|-3-------3-------|-3-------3-------|
E:-----------------|-----------------|-----------------|-----------------|

e:-----------------|----------
De rest van dit nummer alleen voor Gitaartabs leden! Maak gratis Gitaartabs account aan . 
Gitaar Tabs

Download, print en speel de Tab ♪ Kansas - Dust In The Wind

Meld je aan en print, download of speel binnen 15 sec mee Tab ♫ Kansas - Dust In The Wind.
Reeds 70.000 gitaristen zijn je voorgegaan.

Gratis Aanmelden Gitaartabs

Comments Kansas - Dust In The Wind - tab

kenworth

Kenworth 2011-05-16

ook hier weer de tekst


jesszo

Jesszo 2010-11-25

Tis echt een supercool liedje en zo moeilijk is hij nou ook weer niet...

x.


Manon33

Manon33 2008-11-03

amen