• Streaming gitaar liedjes spelen
  • Leer gitaar spelen & gitaarlessen
  • 75.000 leden
	

De herdertjes lagen bij nachten,  zij lagen bij nacht in het veld.
-----------0---------------1-0----0-1-0---0-0-------------------------------------
-------1-----3-1-0-1-3---------3------3------3-1--------------------------------
---0----------------------------------------------------------------------------------
---------------------------------------------------------------------------------------
---------------------------------------------------------------------------------------
---------------------------------------------------------------------------------------
Zij hielden vol trouwen de wachte, zij hadden hun schaapjes geteld.
-----------0---------------1-0----0-1-0---0-0--------------------------------------
-------1-----3-1-0-1-3-------3---------3------3
De rest van dit nummer alleen voor Gitaartabs leden! Maak gratis Gitaartabs account aan . 
Gitaar Tabs

Download, print en speel de Tab ♪ Kerstliedjes - De Herdertjes Lagen Bij Nachte

Meld je aan en print, download of speel binnen 15 sec mee Tab ♫ Kerstliedjes - De Herdertjes Lagen Bij Nachte.
Reeds 70.000 gitaristen zijn je voorgegaan.

Gratis Aanmelden Gitaartabs

Wat vind jij van deze song? Kerstliedjes - De Herdertjes Lagen Bij Nachte


Comments Kerstliedjes - De Herdertjes Lagen Bij Nachte - tab

darm87

Darm87 2011-12-19

whooooo ouders zijn hier blij mee met de kerst!!!!!!!!!!!!!!!!


darm87

Darm87 2011-11-30

makkelijk en je kan hier ook heel mooi met je snaar heen en weer zwabberen wie dit ook vind type 1123


darm87

Darm87 2011-11-28

drooog ken hem wel :P


gitaardavid

Gitaardavid 2010-12-30

eitje dit leerde ik spelen in een van mijn eerste gitaarlessen


ameester

Ameester 2010-12-24

makkelijk!!! aleen een klein meetje lastig te spelen met een slecht gestemde gitaar XD


ferdeaap

Ferdeaap 2010-12-18

nice en makkelijk


11360000

11360000 2010-11-28

vet makkelijk is voor een kleuter zelfs te doenXD


tim gitaar master

Tim gitaar master 2010-10-15

te gek echt monsterlijk

 


SaskiaV

SaskiaV 2010-10-10

Ik snap dit systeem niet zo goed. Ik vind het makkelijker als er gewoon akkoorden bovenstaan!


MauriceBoontje

MauriceBoontje 2010-04-20

super!


109510

109510 2010-03-29

easy


stierp2000

Stierp2000 2010-03-16

Makkelijk!!!


Plaats opmerkingen e.o. suggestie voor Kerstliedjes - De Herdertjes Lagen Bij Nachte