• Streaming gitaar liedjes spelen
  • Leer gitaar spelen & gitaarlessen
  • 75.000 leden
Feliz Navidad
Date:  12/12/04 2:35 A.M.

I couldn't find this tab anywhere online.  So I finally did it myself, it's about as accurate as you will find.  Enjoy.

*Capo wherever you need to get your pitch.  Sounds Fine Without.
*Standard Tuning

*/ = Slide up
*\ = Slide down

e|-------------|----0--------|--------------------------------------------|
B|----3-2-3-0--|--0---3-0----|----3-2-3-0---0-0-----0---------------------|
G|--2----------|----------2--|--2---------0-----2-2---2-0-0---------------|
D|-------------|-------------|------------------------------4(4)----------|
A|-------------|-------------|--------------------------------------------|
E|-------------|-------------|--------------------------------------------|

e|-------------|----0--------|--------------------------------------------|
B|----3-2-3-0--|--0---3-0----|----3-2-3-0---0-0-----0---------------------|
G|--2----------|----------2--|--2---------0-----2-2---2-0-0-------
De rest van dit nummer alleen voor Gitaartabs leden! Maak gratis Gitaartabs account aan . 
Gitaar Tabs

Download, print en speel de Tab ♪ Kerstliedjes - Feliz Navidad

Meld je aan en print, download of speel binnen 15 sec mee Tab ♫ Kerstliedjes - Feliz Navidad.
Reeds 70.000 gitaristen zijn je voorgegaan.

Gratis Aanmelden Gitaartabs

Wat vind jij van deze song? Kerstliedjes - Feliz Navidad


Plaats opmerkingen e.o. suggestie voor Kerstliedjes - Feliz Navidad