• Streaming gitaar liedjes spelen
  • Leer gitaar spelen & gitaarlessen
  • 75.000 leden
Hark the Herald Angels sing by Hopeforchris
   
You could play this one all year long it is a  good fingerpicking and alternate up/down picking practice :) 


      e|-------------------------------|
      B|-----------0-0---3-3-3-1-0---0-|
      G|---0-0---0-----2-----------2---|
      D|-0-----4-----------------------|
      A|-------------------------------|
      E|-------------------------------|

Hark! The Herald angels sing glory to the new born king

      e|-------------------------------|
      B|---------0-0---3---------------|
      G|--0-0---0----2---2-2-----------|
      D|-0----4--------------4-4-2-0---|
      A|-------------------------------|
      E|-------------------------------|

Peace on earth and mercy mild. God and sinners reconciled

 
De rest van dit nummer alleen voor Gitaartabs leden! Maak gratis Gitaartabs account aan . 
Gitaar Tabs

Download, print en speel de Tab ♪ Kerstliedjes - Hark The Herald Angels Sing

Meld je aan en print, download of speel binnen 15 sec mee Tab ♫ Kerstliedjes - Hark The Herald Angels Sing.
Reeds 70.000 gitaristen zijn je voorgegaan.

Gratis Aanmelden Gitaartabs

Wat vind jij van deze song? Kerstliedjes - Hark The Herald Angels Sing


Comments Kerstliedjes - Hark The Herald Angels Sing - tab

JanH

JanH 2013-12-24


Plaats opmerkingen e.o. suggestie voor Kerstliedjes - Hark The Herald Angels Sing