• Streaming gitaar liedjes spelen
  • Leer gitaar spelen & gitaarlessen
  • 75.000 leden
intro...guitar…
E|-14-14-14--14-14-14--14--17-------------------------------------------| 
H|-15-15-15--14-14-14--15-----15-17—(b)17-17--15------------------------| 
G|---------------------------------------------(b)17-17--15--17--14-----| 
D|---------------------------------------------------------------18--16-| 
A|----------------------------------------------------------------------| 
E|----------------------------------------------------------------------|
      bass
G|------------------------------|
D|------------------------------|
A|------------------------------|
E|---5--3--1--0-----------------|

D                Dmaj7        D6              D                             D#dim
J
De rest van dit nummer alleen voor Gitaartabs leden! Maak gratis Gitaartabs account aan . 
Gitaar Tabs

Download, print en speel de Tab ♪ Kerstliedjes - Jingle Bell Rock

Meld je aan en print, download of speel binnen 15 sec mee Tab ♫ Kerstliedjes - Jingle Bell Rock .
Reeds 70.000 gitaristen zijn je voorgegaan.

Gratis Aanmelden Gitaartabs

Wat vind jij van deze song? Kerstliedjes - Jingle Bell Rock


Plaats opmerkingen e.o. suggestie voor Kerstliedjes - Jingle Bell Rock