• Streaming gitaar liedjes spelen
  • Leer gitaar spelen & gitaarlessen
  • 75.000 leden
e ------0--0--0------0--0--0------0--3----------------0----------------------|
B --------------------------------------------1----3-------------------------|
G ---------------------------------------------------------------------------|
D ---------------------------------------------------------------------------|
A ---------------------------------------------------------------------------|
E ---------------------------------------------------------------------------|


e ------1--1--1------1--1-----0--0--0--0--0---------------0---------3--------|
B --------------------------------------------------3--3-------3-------------|
De rest van dit nummer alleen voor Gitaartabs leden! Maak gratis Gitaartabs account aan . 
Gitaar Tabs

Download, print en speel de Tab ♪ Kerstliedjes - Jingle Bells (goed)

Meld je aan en print, download of speel binnen 15 sec mee Tab ♫ Kerstliedjes - Jingle Bells (goed).
Reeds 70.000 gitaristen zijn je voorgegaan.

Gratis Aanmelden Gitaartabs

Wat vind jij van deze song? Kerstliedjes - Jingle Bells (goed)


Comments Kerstliedjes - Jingle Bells (goed) - tab

sselin44

Sselin44 2012-02-12

strierp2000 ja je moet ze tegelijk aanslaan


darm87

Darm87 2012-01-02

STAARTVIN HIER KLOPT IETS NIET!


JanH

JanH 2010-12-16



stierp2000

Stierp2000 2010-12-13

Heel erg bedankt:) ps, dus ook als het 3 bas snaren zijn?


nobody

Nobody 2010-12-11

Hoi stierp2000,

Het antwoord is ja, je moet ze tegelijk aanslaan, alleen in dit liedje is dat dus niet zo.

Ik wist eerst ook niet of je ze wel of niet tegelijk moest aanslaan.

Groeten,

Staartvin


stierp2000

Stierp2000 2010-12-10

Gewoon een algemene vraag: Als er 2 getallen onder elkaar staan, moet je die dan gelijk aanslaan of niet? Ik heb namelijk een liedje, en daar staan 3 getallen boven elkaar bij de bas snaar, moet ik die gelijk aanslaan? BVD


Plaats opmerkingen e.o. suggestie voor Kerstliedjes - Jingle Bells (goed)