• Streaming gitaar liedjes spelen
  • Leer gitaar spelen & gitaarlessen
  • 75.000 leden
LET IT SNOW

VERSE
----3-3-1-0--------------------------------|
------------3-1----------3-1-3-1-0---------|
0-0-------------0----0-0-----------0-------|
-------------------------------------------|
-------------------------------------------|
-------------------------------------------|


----5-5-3-1-0-------7-5-3--3-1-0--0--------|
--------------3---------------------3-1---
De rest van dit nummer alleen voor Gitaartabs leden! Maak gratis Gitaartabs account aan . 
Gitaar Tabs

Download, print en speel de Tab ♪ Kerstliedjes - Let It Snow V1

Meld je aan en print, download of speel binnen 15 sec mee Tab ♫ Kerstliedjes - Let It Snow V1.
Reeds 70.000 gitaristen zijn je voorgegaan.

Gratis Aanmelden Gitaartabs

Wat vind jij van deze song? Kerstliedjes - Let It Snow V1


Comments Kerstliedjes - Let It Snow V1 - tab

JanH

JanH 2013-12-24


Plaats opmerkingen e.o. suggestie voor Kerstliedjes - Let It Snow V1