• Streaming gitaar liedjes spelen
  • Leer gitaar spelen & gitaarlessen
  • 75.000 leden
Instrumentaal

voorbeeld kopieer en plak deze link;

http://soundclick.com/share.cfm?id=9999415

Deze uitvoering begint erg rustig en het 2e deel is wat steviger, maar je kan het invullen zoals je het zelf zou willen.

Veel speel plezier gewenst.


e-----------------------------------------------------------------------------------|
B-------0--0--0--1-0-1-0--------0-0-0-0---1-0-1-0-----------------------------------|
G--0--2-------------------0-0-2--------------------0-0-2--0-0-0-0---1-0-1--0-----0--|
D-----------------------------------------------------------------------------2-----|
A-----------------------------------------------------------------------------------|
E-----------------------------------------------------------------------------------|

e ------------------------|
B -------------0----------|
G -1--3-3-3-3----3-1-0----|
D ------------------------|

e----------------0---1-0--------0---------------------------0-0-0-0------------------------------|
B----0--1--3-3-3---------3---1----3-1--0---3-1-0-----0--2-------------1-0-1--0-------------------|
G--2---------------------------------------------2-------------------------------2-0-2-0---------|
D------------------------------------------------------------------------------------------------|
A------------------------------------------------------------------------------------------------|
E------------------------------------------------  Dit is de rustige versi
De rest van dit nummer alleen voor Gitaartabs leden! Maak gratis Gitaartabs account aan . 
Gitaar Tabs

Download, print en speel de Tab ♪ Kerstliedjes - Little Drummer Boy

Meld je aan en print, download of speel binnen 15 sec mee Tab ♫ Kerstliedjes - Little Drummer Boy.
Reeds 70.000 gitaristen zijn je voorgegaan.

Gratis Aanmelden Gitaartabs

Wat vind jij van deze song? Kerstliedjes - Little Drummer Boy


Comments Kerstliedjes - Little Drummer Boy - tab

darm87

Darm87 2012-12-24

waarom staat er geen tekst bij????


Plaats opmerkingen e.o. suggestie voor Kerstliedjes - Little Drummer Boy