• Streaming gitaar liedjes spelen
  • Leer gitaar spelen & gitaarlessen
  • 75.000 leden
|------------------------------------------------------------------------|
|--------1-----------------1-0---------0---------------------------------|
|0-2-0-------2-0-0-2-0-2-0-------0-------2-0---0-2-0-2-0-2---------------|
|------2-----------------------3---3-0---------------------2-------------|
|------------------------------------------------------------------------|
|------------------------------------------------------------------------|

|--------------------------------------------------------------------|
|--------1----------------1-0----------0----------------
De rest van dit nummer alleen voor Gitaartabs leden! Maak gratis Gitaartabs account aan . 
Gitaar Tabs

Download, print en speel de Tab ♪ Kerstliedjes - Rudolf The Red Nosed Riendeer

Meld je aan en print, download of speel binnen 15 sec mee Tab ♫ Kerstliedjes - Rudolf The Red Nosed Riendeer.
Reeds 70.000 gitaristen zijn je voorgegaan.

Gratis Aanmelden Gitaartabs

Wat vind jij van deze song? Kerstliedjes - Rudolf The Red Nosed Riendeer


Plaats opmerkingen e.o. suggestie voor Kerstliedjes - Rudolf The Red Nosed Riendeer