• Streaming gitaar liedjes spelen
  • Leer gitaar spelen & gitaarlessen
  • 80.000 leden
Jingle Bells!
e|------0--0--0------0--0--0------0--3----------------0----------------------|
B|--------------------------------------------1----3-------------------------|
G|---------------------------------------------------------------------------|
D|---------------------------------------------------------------------------|
A|---------------------------------------------------------------------------|
E|---------------------------------------------------------------------------|


e|------1--1--1------1--1-----0--0--0--0--0---------------0---------3--------|
B|--------------------------------------------------3--3-------3-------------|
G|---------------------------------------------------------------------------|
D|---------------------------------------------------------------------------|
A|---------------------------------------------------------------------------|
E|---------------------------------------------------------------------------|


e|------0--0--0------0--0--0------0--3----------------0----------------------|
B|--------------------------------------------1----3-------------------------|
G|---------------------------------------------------------------------------|
D|---------------------------------------------------------------------------|
A|---------------------------------------------------------------------------|
E|---------------------------------------------------------------------------|


e|------1--1--1------1--1--0--0----------0--0----3--3--1---------------------|
B|------------------------------------------------------------3--1-----------|
G|---------------------------------------------------------------------------|
D|---------------------------------------------------------------------------|
A|---------------------------------------------------------------------------|
E|---------------------------------------------------------------------------|

___________________________________________________________________________________

Oh Denneboom,

Oh denneboom, 

Oh denneboom, oh denneboom.
wat zijn je takken wonderschoon.
ik heb je laatst in 't bos zien staan.
toen zaten er geen kaarsjes aan.
Oh denneboom, oh denneboom.
wat zijn je takken wonderschoon. 

e|-----0-0-0---|---2-4-4-4---|---4-2-4-5---|-----2-0-0---|
B|---0---------|-------------|-------------|---4---------|
G|-------------|-------------|-------------|-------------|
D|-------------|-------------|-------------|-------------|
A|-------------|-------------|-------------|-------------|
E|-------------|-------------|-------------|-------------|

e|-----0-0-0---|---2-4-4-4---|---4-2-4-5---|-----2-0-0---|
B|---0---------|-------------|-------------|---4---------|
G|-------------|-------------|-------------|-------------|
D|-------------|-------------|-------------|-------------|
A|-------------|-------------|-------------|-------------|
E|-------------|-------------|-------------|-------------|

e|---7-7-4-9---|--7-7-5-5----|---5-5-2-7---|--5-5-4-4----|
B|-------------|-------------|-------------|-------------|
G|-------------|-------------|-------------|-------------|
D|-------------|-------------|-------------|-------------|
A|-------------|-------------|-------------|-------------|
E|-------------|-------------|-------------|-------------|

_________________________________________________________________________________

Stille nacht, heilige nacht.

e--0--2--0-----0--2--0------7--7--4--5--5--0--2--2--5--4-2--0--2-0----2--2--5--4-2--0--2-0----7--7---|
B-----------2-----------2-------------------------------------------2----------------------2---------|
G----------------------------------------------------------------------------------------------------|
D----------------------------------------------------------------------------------------------------|
A----------------------------------------------------------------------------------------------------|
E----------------------------------------------------------------------------------------------------|

e--10--7--4--5----9---5--0----0--------------------0--2--0-----0--2--0----7--7--4--5--5--0--2--2--5--|
B--------------------------2-----3--0-----------
>> Registreer, speel & download <<
Meld nu aan en speel de rest van Kerstman - Kerst Liedjes

>> Registreer, speel & download <<
------------2----------2-----------------------------|
G--------------------------------------2-------------------------------------------------------------|
D----------------------------------------------------------------------------------------------------|
A----------------------------------------------------------------------------------------------------|
E----------------------------------------------------------------------------------------------------|

e--4--2--0--2--0----2--2--5--4--2--0--2--0-----7--7--10--7--4--5--9--5--0----0-----------------------|
B----------------2-------------------------2------------------------------2----3--0------------------|
G-----------------------------------------------------------------------------------2----------------|
D----------------------------------------------------------------------------------------------------|
A----------------------------------------------------------------------------------------------------|  herhaal deze paar keer.
E----------------------------------------------------------------------------------------------------|

______________________________________________________________________________________________________________________________________

We Wish You A Merry Christmas  de akkoorden in tabs zet ik er zo snel mogelijk bij!!

     C                F
We wish you a merry Christmas
     D                G
We wish you a merry Christmas
     C                F
We wish you a merry Christmas
     G            C
And a happy New Year.
      C           Bm
Glad tidings we bring
    Am           G
To you and your kin;
       C             F
Glad tidings for Christmas
        G        C
And a happy New Year

______________________________________

Feliz navidad.

/ = Slide up!
\ = Slide down!

e|-------------|----0--------|--------------------------------------------|
B|----3-2-3-0--|--0---3-0----|----3-2-3-0---0-0-----0---------------------|
G|--2----------|----------2--|--2---------0-----2-2---2-0-0---------------|
D|-------------|-------------|------------------------------4(4)----------|
A|-------------|-------------|--------------------------------------------|
E|-------------|-------------|--------------------------------------------|

e|-------------|----0--------|--------------------------------------------|
B|----3-2-3-0--|--0---3-0----|----3-2-3-0---0-0-----0---------------------|
G|--2----------|----------2--|--2---------0-----2-2---2-0-0---------------|
D|-------------|-------------|------------------------------4(4)----------|
A|-------------|-------------|--------------------------------------------|
E|-------------|-------------|--------------------------------------------|

e|--2-2-2-2-0------------|--0-0-0-0--------------|
B|------------3-3-0-0-3--|----------3-0-0--------|
G|-----------------------|----------------2-1-2--|
D|-----------------------|-----------------------|
A|-----------------------|-----------------------|
E|-----------------------|-----------------------|

e|--2-2-2-2-0-----------0--------------------|--2-2-2-2-0-----------------|
B|------------3-3-0-0-0---3-2-2-3-5-5/7\5-3--|------------3-3-0---0-------|
G|-------------------------------------------|------------------3---------|
D|-------------------------------------------|----------------------------|
A|-------------------------------------------|----------------------------|
E|-------------------------------------------|----------------------------|

e|--0-0-0-0--------------|--2-2-2-2-0-----------0-------------------------|
B|----------3-0-0--------|------------3-3-0-0-0---3-2-2-3-5-5/7\5-3-------|
G|----------------2-1-2--|------------------------------------------------|
D|-----------------------|------------------------------------------------|
A|-----------------------|------------------------------------------------|
E|-----------------------|------------------------------------------------|

                                                                                         Binnen kort nog meer tabs!!!
_________________________________________________________________________________________________________________________



More info

Meer Kerstman songs

Kerstman - Kerst Liedjes