• Streaming gitaar liedjes spelen
  • Leer gitaar spelen & gitaarlessen
  • 75.000 leden
Intro:
Guitar 1
e|-------------------------------------------------------------------|
B|-------------------------------------------------------------------|
G|---9--9--9--9---9--9--9--9---2-2-2-2--2-2-2-2----------------------|
D|--10-10-10-10--10-10-10-10---3-3-3-3--3-3-3-3----------------------| x2
A|--10-10-10-10--10-10-10-10---3-3-3-3--3-3-3-3----------------------|
E|---8--8--8--8---0--0--0--0---1-1-1-1--1-1-1-1----------------------|
    Oowooohooo   Oowooohooo

Guitar 2
e|---0-0-0-0-0-0-0-0-0-0-0-0-0-0-0-0---------------------------------|
B|---5-5-5-5-5-5-5-5-5-5-5-5-5-5-5-5---------------------------------|
G|---4-4-4-4-4-4-4-4-4-4-4-4-4-4-4-4---------------------------------|
D|-------------------------------------------------------------------| x3
A|-------------------------------------------------------------------|
E|-------------------------------------------------------------------|

Guitar 1
e|-------------------------------------------------------------------|
B|-------------------------------------------------------------------|
G|---6-6-6-6---9--9--9--9--2-2-2-2--2-2-2-2--------------------------|
D|---7-7-7-7--10-10-10-10--3-3-3-3--3-3-3-3--------------------------| x2
A|---7-7-7-7--10-10-10-10--3-3-3-3--3-3-3-3--------------------------|
E|---5-5-5-5---8--8--8--8--1-1-1-1--1-1-1-1--------------------------|
                                    ^
                                    hold here second time thru
Guitar 2
e|----0--0--0--0--0--0--0--0--0--------0--0--0--0--0--0--1-----------|
B|---12-12-12-13-13-13-15-15-15b17r15-15-13-13-13-12-12--1 hold------|
G|-------------------------------------------------------------------|
D|-------------------------------------------------------------------|
A|-------------------------------------------------------------------|
E|-------------------------------------------------------------------|


Verse 1:
Guitar 1
e|-------------------------------------------------------------------|
B|-------------------------------------------------------------------|
G|---9--9--9--9---9--9--9--9---2-2-2-2--2-2-2-2----------------------|
D|--10-10-10-10--10-10-10-10---3-3-3-3--3-3-3-3----------------------| x2
A|--10-10-10-10--10-10-10-10---3-3-3-3--3-3-3-3----------------------|
E|---8--8--8--8---0--0--0--0---1-1-1-1--1-1-1-1----------------------|
    I've been roaming around, always looking down and all I see 
    Painted faces, build the places I cant reach 


e|-------------------------------------------------------------------|
B|-------------------------------------------------------------------|
G|---6-6-6-6---9--9--9--9--2-2-2-2--2-2-2-2--------------------------|
D|---7-7-7-7--10-10-10-10--3-3-3-3--3-3-3-3--------------------------| x2
A|---7-7-7-7--10-10-10-10--3-3-3-3--3-3-3-3--------------------------|
E|---5-5-5-5---8--8--8--8--1-1-1-1--1-1-1-1--------------------------|
     You know that I could use somebody
     You know that I could use somebody


Verse 2:
Guitar 1
e|-------------------------------------------------------------------|
B|-------------------------------------------------------------------|
G|---9--9--9--9---9--9--9--9---2-2-2-2--2-2-2-2----------------------|
D|--10-10-10-10--10-10-10-10---3-3-3-3--3-3-3-3----------------------| x2
A|--10-10-10-10--10-10-10-10---3-3-3-3--3-3-3-3----------------------|
E|---8--8--8--8---0--0--0--0---1-1-1-1--1-1-1-1----------------------|
    Someone like you, And all you know, And how you speak 
    Countless lovers under cover of the street 

Guitar 2  p.m
e|---0--0-0--0-0-0---0--0-0--0-0-0-----------------------------------|
B|---5--5-5--5-5-5---5--5-5--5-5-5-----------------------------------|
G|---4--4-4--4-4-4---4--4-4--4-4-4-----------------------------------|
D|-------------------------------------------------------------------| x2
A|-------------------------------------------------------------------|
E|-------------------------------------------------------------------|

Guitar 1
e|-------------------------------------------------------------------|
B|-------------------------------------------------------------------|
G|---6-6-6-6---9--9--9--9--2-2-2-2--2-2-2-2--------------------------|
D|---7-7-7-7--10-10-10-10--3-3-3-3--3-3-3-3--------------------------| x2
A|---7-7-7-7--10-10-10-10--3-3-3-3--3-3-3-3--------------------------|
E|---5-5-5-5---8--8--8--8--1-1-1-1--1-1-1-1--------------------------|
     You know that I could use somebody
     You know that I could use somebody
     Someone like you

Guitar 2  p.m
e|---0--0-0--
De rest van dit nummer alleen voor Gitaartabs leden! Maak gratis Gitaartabs account aan . 
Gitaar Tabs

Download, print en speel de Tab ♪ Kings Of Leon - Use Somebody

Meld je aan en print, download of speel binnen 15 sec mee Tab ♫ Kings Of Leon - Use Somebody.
Reeds 70.000 gitaristen zijn je voorgegaan.

Gratis Aanmelden Gitaartabs

Comments Kings Of Leon - Use Somebody - tab

freekkiemonster

Freekkiemonster 2013-03-11

Wat is het akkoord Gadd2


darm87

Darm87 2011-06-29

waar staan de nummer voor ik snap er niks van :$


whitemax

Whitemax 2011-02-01

zeker chill nummer makkelijk te spelen ook

;)

max w.

 


CythaBest

CythaBest 2010-11-21

Snap er niets van!


frankk1991

Frankk1991 2010-10-09

lisa je moet omlaag omlaag omlaag omhoog aanslaan en het is gewoon steeds een F akkoord :)


Liisaa

Liisaa 2010-09-20

k smap r geen donderr van!


Tess

Tess 2009-11-17

Heeft iemand misschien ook de akkoorden voor deze tab die op de piano te spelen zijn ? (zoals in de cover van Laura Jansen)

 

Gr


UMrocks

UMrocks 2009-08-23

Dit heeft me echt geholpen Thnx