• Streaming gitaar liedjes spelen
  • Leer gitaar spelen & gitaarlessen
  • 80.000 leden
Led Zeppelin - Whole Lotta Love solo
(E pentatonic)

SOLO  
              |======| |===|
-----12-------|------|-|---|----------|--------------------------------------|
--------15-12-|------|-|---|----------|----3---------------------------------|
-14^----------15p14p12-14p12-14^------|-/4---4-2p0-2p0-0-2p0-----------------| 
--------------------------------------|----------------------2p0-2p0---------|
--------------------------------------|------------------------------2p0-----|
--------------------------------------|--------------------------------------|

                  |====|
-----12-----------15---|--------------|----15-17^^--------15-----------------|
---------15^-15^-----15^--------------|-17----------17-15----17--------------|
-14^-------------------
>> Registreer, speel & download <<
Meld nu aan en speel de rest van Led Zeppelin - Whole Lotta Love Solo

>> Registreer, speel & download <<
---------------|--------------------------------------| 
--------------------------------------|--------------------------------------|
--------------------------------------|--------------------------------------|
--------------------------------------|--------------------------------------|


----19^-19----18-17-15----15----------|------------------19------------------|
-17--------------------17----17-------|-17--19^-19^-19^^----17---------------|
--------------------------------------|--------------------------------------| 
--------------------------------------|--------------------------------------|
--------------------------------------|--------------------------------------|
--------------------------------------|--------------------------------------|



More info