• Streaming gitaar liedjes spelen
  • Leer gitaar spelen & gitaarlessen
  • 80.000 leden
Led Zeppelin - Whole Lotta Love

Intro
e|---------------------------------------------|
B|---------------------------------------------|
G|---------------------------------------------|
D|----------11---11---11----------11--11---11--|
A|---5--5---9----9----9----5--5---9---9----9---|
E|--7p-9p-00---00---00---9p-9p-00---00---00----|

Chorses.
e|----------------------------|--------------------------------|
B|----------------------------|--------------------------------|
G|----------------------------|--------------------------------|
D|----------11---11---11---11-|----------11---11---11---11-----|
A|---7--7---9----9----9----9--|---7--7---9----9----9----9------|
E|--9p-9p-00---00---00---00---|--9p-9p-00---00---00---00-------|

Refrein.4X

e|--------------------|
B|--------------------|
G|--7-7-7-7--9-9-9-9--|
D|--7-7-7-7--9-9-9-9--|
A|--5-5-5-5--7-7-7-7--|
E
>> Registreer, speel & download <<
Meld nu aan en speel de rest van Led Zeppelin - Whole Lotta Love

>> Registreer, speel & download <<
|-----------0000000--|

Het geschuur wat je hoort voor de solo, is een plectrum waarmee ze met de zijkant over de 3 bovenste snaren gaan.
En de toonverandering doen ze met een TREMMOLO (de slinger van een electrische gitaar... een STRATOCASTER heeft dit)
De TREMMOLO zit aan de BRIDGE vast waar de snaren door de Body van de gitaar komen.

De Solo ken ik niet, ik in profiseer daar altijd mee. 
Maar de slag-gitaar die je tussen de solostukjes door hoort is een [Em]
Zoals hieronder aangegeven staat.(Denk er wel aan dat je dit akkoord afdempt met de zijkant van je hand)

e|-------|                         e|-------| 
B|-------|                         B|-------|
G|-------|  Stukje van de solo...  G|-------|   Stukje Solo... enzovoort.
D|--2-2--|                         D|--2-2--|
A|--2-2--|                         A|--2-2--|
E|--0-0--|                         E|--0-0--|

More info