• Streaming gitaar liedjes spelen
  • Leer gitaar spelen & gitaarlessen
  • 75.000 leden
Brothers Unawar
1/2 step downtuned

Structure: Intro
            Verse
             Chorus
              Bridge
            Verse
             Chorus
             Chorus
              Solo
              Interlude
             Chorus
             Chorus
              Extro



. - staccato
r - rest      
= - hold

                 
                 
                 _____________________________
                <<<<<<<<<<<--Intro-->>>>>>>>>>>
                 ~~~~~~~~~~~~~~~~~~~~~~~~~~~~~

              .           .
G------------------------------------|------------------------------|
u-------------6-------r---6---r---5==|==========================----|
i-------------7-------r---7---r---5==|==========================----|
t-------------7-------r---7---r---5==|==========================----|
a-0-h-5-------5-------r---5---r---3==|==========================----|
r------------------------------------|----------------------------5-|
      |       |       |       |        |       |       |       |
B------------------------------------|------------------------------|
a---------------rest-----------------|------------rest--------------|
s------------------------------------|------------------------------|
s------------------------------------|------------------------------|


           .           .
G---------------------------------|------------------------------|
u----------6-------r---6---r---5==|==========================----|
i----------7-------r---7---r---5==|==========================----|
t----------7-------r---7---r---5==|==========================----|  Proceed
a--5-------5-------r---5---r---3==|==========================----|
r---------------------------------|------------------------------|  directly
   |       |       |       |        |       |       |       |
B---------------------------------|------------------------------|     to
a------------------3--------------|------------------------------|
s--------------3h5-----3----------|---------------0h3---3====--4-|   verse!
s--------------------------3---5--|------------------------------|


                 _____________________________
                <<<<<<<<<<<--Verse-->>>>>>>>>>>
                 ~~~~~~~~~~~~~~~~~~~~~~~~~~~~~

Play eight times for first verse, 10 for second:

The verses are almost the same as the intro:

           .           .
G---------------------------------|------------------------------|
u--r-------6-------r---6---r---5==|==========================----|
i--r-------7-------r---7---r---5==|==========================----|
t--r-------7-------r---7---r---5==|==========================----|
a--r-------5-------r---5---r---3==|==========================----|
r---------------------------------|------------------------------|
   |       |       |       |        |       |       |       |
B---------------------------------|------------------------------|
a----------------------3----------|------------------------------|
s--5-------r---0---3h5-----3------|---------------0h3---3====--4-|
s------------------------------5==|========----------------------|

Every so often the guitar will change a bit (listen close 
De rest van dit nummer alleen voor Gitaartabs leden! Maak gratis Gitaartabs account aan . 
Gitaar Tabs

Download, print en speel de Tab ♪ Live - Brothers Unawar

Meld je aan en print, download of speel binnen 15 sec mee Tab ♫ Live - Brothers Unawar.
Reeds 70.000 gitaristen zijn je voorgegaan.

Gratis Aanmelden Gitaartabs