• Streaming gitaar liedjes spelen
  • Leer gitaar spelen & gitaarlessen
  • 80.000 leden
The Beauty of Gray
                             

1/2 step downtuned

Structure: Intro
            Verse
             Prechorus
              Chorus 1
               Bridge
            Verse
             Prechorus
              Chorus
               Theme
                Interlude
              Chorus
               Theme



| - quarter note beats.
r - rest.
= - hold note/chord.
x - muted chord.
                 
                 
                 _____________________________
                <<<<<<<<<<<--Intro-->>>>>>>>>>>
                 ~~~~~~~~~~~~~~~~~~~~~~~~~~~~~

Solo Rhythm Guitar and Bass. Play 4 times:

Chord : Bm    Bm    r     r     F#==================
        |     |     |     |     |     |     |     |
B----------------------------|-------------------------|
a----------------------------|-------------------------|
s-------2-----2-----R========|=========================|
s----------------------------|-------------------------|


                 _____________________________
                <<<<<<<<<<<--Verse-->>>>>>>>>>>
                 ~~~~~~~~~~~~~~~~~~~~~~~~~~~~~

Play Intro riff 4 times.


                 _________________________________
                <<<<<<<<<<<--Prechorus-->>>>>>>>>>>
                 ~~~~~~~~~~~~~~~~~~~~~~~~~~~~~~~~~

Play the following 4 times:

Chord : G     x  x  G     x  x   D     x  x  A     x  x
        |     |     |     |      |     |     |     |
B------------------------------|------------------------|
a------------------------------|------------------------|
s----------------------------5-|-5----------------------|
s-------3--------3--3----------|----------5--5--------3-|
                                                      ^
     4th time omit------------------------------------^

then play:

Chord : C  x x C  x x C  x x C  x x  C  x x C  x x C  x x C  x x
        |      |      |      |       |      |      |      |
B----------------------------------|-----------------------------|
a----------------------------------|-----------------------------|
s-------3------3------3------3-----|-3------3------3------3------|
s----------------------------------|-----------------------------|



                 ______________________________
                <<<<<<<<<<<--Chorus-->>>>>>>>>>>
                 ~~~~~~~~~~~~~~~~~~~~~~~~~~~~~~

1st and second chorus, play following line once:
3rd chorus, play it three times:

Chords: Bm  Bm  Bm  Bm   Em  Em  Em  Em   Bm  Bm  Bm  Bm   F#  F#  F#  F#
        |   |   |   |    |   |   |   |    |   |   |   |    |   |   |   |
B----------------------|----------------|----------------|----------------|
a----------------------|----------------|----------------|----------------|
s-------2---2---2---2--|----------------|-2---2---2---2--|----------------|
s----------------------|-0---0---0---0--|----------------|-2---2---2---2--|




Chords: Bm  Bm  Bm  Bm   Em  Em  Em  Em   D                A
G----------------------|----------------|---------232----|-0--------------|
u----------------------|----------------|-------3-----3--|-2--------------|
i---------rest---------|------ditto-----|-----2----------|-2--------------|
t----------------------|----------------|-0-------------0|-2--------------|
a----------------------|----------------|----------------|-0--------------|
r----------------------|----------------|----------------|----------------|
        |   |   |   |    |   |   |   |    |   |   |   |    |   |   |   |
B----------------------|----------------|----------------|----------------|
a----------------------|----------------|-0--------------|----------------|
s-------2---2---2---2--|----------------|----------------|-0--------------|
s----------------------|-0---0---0---0--|----------------|----------------|
                                        ^
                                        ^
       Second and third chorus, add the ^ following here:

            D                 A
          G---------232-----|-----------------|
          u-------3-----3---|---------232-----|
          i-----2-----------|-------2-----2---|
          t-0---
>> Registreer, speel & download <<
Meld nu aan en speel de rest van Live - The Beauty Of Gray

>> Registreer, speel & download <<
----------0-|-----2---------0-|
          a-----------------|-0---------------|
          r-----------------|-----------------|
            |   |   |   |     |   |   |   |
          B-----------------|-----------------|
          a-0---------------|-----------------|
          s-----------------|-0---------------|
          s-----------------|-----------------|



                 ______________________________
                <<<<<<<<<<<--Bridge-->>>>>>>>>>>
                 ~~~~~~~~~~~~~~~~~~~~~~~~~~~~~~

Play intro riff 2 times.


                 _____________________________
                <<<<<<<<<<<--Theme-->>>>>>>>>>>
                 ~~~~~~~~~~~~~~~~~~~~~~~~~~~~~

Play twice (second time play 'til fade):

Chords: Bm  x x Bm  x x  Em  x x Em  x x  D   x x D   x x  A   x x A   x x
        |   |   |   |    |   |   |   |    |   |   |   |    |   |   |   |
B----------------------|----------------|----------------|----------------|
a----------------------|----------------|----------------|----------------|
s-------2-----2-2------|---------------5|-5-----5-5------|----------------|
s---------------------0|-0-----0-0------|---------------5|-5-----5-5------|


                 _________________________________
                <<<<<<<<<<<--Interlude-->>>>>>>>>>>
                 ~~~~~~~~~~~~~~~~~~~~~~~~~~~~~~~~~

Play 3 times:

G------------------|---------0=====--|------------------|---------0=====--|
u------------------|-------0---------|------------------|-------0---------|
i------------------|---0-------------|------------------|---0-------------|
t------0-----0-----|-----------------|------0-----0-----|-----------------|
a----2-----0-------|-----------------|----2-----0-------|-----------------|
r--3-----2-----0===|================-|--3-----2-----0===|================-|
   |   |   |   |     |   |   |   |      |   |   |   |     |   |   |   |
B------------------|-----------------|------------------|-----------------|
a------------------|-----------------|------------------|-------0-2-2-0---|
s------------------|-----------------|------------------|---2-------------|
s--3-----2-----0===|================-|--3-----2-----0===|==---------------|


then play:

G------------------|---------0=====--|--------------0===|================-|
u------------------|-------0---------|--0---------------|-----------------|
i------------------|---0-------------|--------2---------|-----------------|
t------0-----0-----|-----------------|------------------|-----------------|
a----2-----0-------|-----------------|------------------|-----------------|
r--3-----2-----0===|================-|------------------|-----------------|
   |   |   |   |     |   |   |   |      |   |   |   |     |   |   |   |
B------------------|-----------------|-/4-----2---------|-----------------|
a------------------|-----------------|------------------|-----------------|
s------------------|-----------------|--------------2===|================-|
s--3-----2-----0===|================-|------------------|-----------------|

"The Beauty Of Gray"

If I told you he was your brother
We could reminisce
Then you would go about your day
If I said you ought to give him some of your water
You'd shake your canteen and walk away

The perception that divides you from him
Is a lie
For some reason you never asked why
This is not a black and white world
You can't afford to believe in your side

This is not a black and white world
To be alive
I say that the colours must swirl
And I believe
That maybe today
We will all get to appreciate

The Beauty of Grey

If I told you she was your mother
We could analyze the situation and be gone
If I said you ought to give her
Some of your water
Your eyes would light up like the dawn
The perception that divides you from her
Is a lie
For some reason we never asked why
This is not a black and white world
You can't afford to believe in your side

This is not a black and white world
To be alive
I say the colors must swirl
And I believe
That maybe today
We will all get to appreciate

The beauty of gray

Look into your eyes
No daylight
New day now 

More info