• Streaming gitaar liedjes spelen
  • Leer gitaar spelen & gitaarlessen
  • 75.000 leden
Tired of 'Me
             
             Look-------->  Standard  Tuning!

Structure: Intro
            Verse-1      <---|
             Chorus          |---These verses are VERY different!
            Verse-2      <---|
             Chorus
              Bridge
              Interlude
            Verse  (Guitar/Bass don't play)
              Chorus
               Ending



. - staccato
r - rest      
= - hold
x - muted note/chord
/ - slide
rpt - repeat last measure
                
                 
                 _____________________________
                <<<<<<<<<<<--Intro-->>>>>>>>>>>
                 ~~~~~~~~~~~~~~~~~~~~~~~~~~~~~

            .              
G----------------------------------|------------------------------|
u----------------------------------|------------------------------|
i---7-5-7-5-7---r---r-------r------|------------------------------|
t----------------------------------|----------rpt-----------------|
a----------------------------------|------------------------------|
r----------------------------------|------------------------------|
    |       |       |       |        |       |       |       |
B----------------------------------|------------------------------|
a----------------------------------|------------------------------|
s---r-------r---0------------------|---------rpt------------------|
s-------------------1---1---0------|------------------------------|


                           
G----------------------------------|------------------------------|
u----------------------------------|------------------------------|
i------------rpt-------------------|--------rpt-------------------|
t----------------------------------|------------------------------|
a----------------------------------|------------------------------|
r----------------------------------|------------------------------|
    |       |       |       |        |       |       |       |
B----------------------------------|------------------------------|
a----------------------------------|------------------------------|
s-----------rpt--------------------|-r-------r---0----------------|
s----------------------------------|-----------------1---1---/12\-|


                 _______________________________
                <<<<<<<<<<<--Verse-1-->>>>>>>>>>>
                 ~~~~~~~~~~~~~~~~~~~~~~~~~~~~~~~
Play 4x:            
            .                                .
G-------------------5---5---8------|-------------------------
De rest van dit nummer alleen voor Gitaartabs leden! Maak gratis Gitaartabs account aan . 
Gitaar Tabs

Download, print en speel de Tab ♪ Live - Tired Of 'me

Meld je aan en print, download of speel binnen 15 sec mee Tab ♫ Live - Tired Of 'me.
Reeds 70.000 gitaristen zijn je voorgegaan.

Gratis Aanmelden Gitaartabs

Artiesten

Live

Song information

Naam: Tired Of 'me
Album:
Notatie: Tab (TAB)
Category: Pop
Niveau:

Statistiek

Downloads: 1.592
Commentaren:

Credits

Geplaat door: JanH
Geschreven door: Gitaartabs
Datum: 2006-10-20