• Streaming gitaar liedjes spelen
  • Leer gitaar spelen & gitaarlessen
  • 80.000 leden
Tired of 'Me
             
             Look-------->  Standard  Tuning!

Structure: Intro
            Verse-1      <---|
             Chorus          |---These verses are VERY different!
            Verse-2      <---|
             Chorus
              Bridge
              Interlude
            Verse  (Guitar/Bass don't play)
              Chorus
               Ending



. - staccato
r - rest      
= - hold
x - muted note/chord
/ - slide
rpt - repeat last measure
                
                 
                 _____________________________
                <<<<<<<<<<<--Intro-->>>>>>>>>>>
                 ~~~~~~~~~~~~~~~~~~~~~~~~~~~~~

            .              
G----------------------------------|------------------------------|
u----------------------------------|------------------------------|
i---7-5-7-5-7---r---r-------r------|------------------------------|
t----------------------------------|----------rpt-----------------|
a----------------------------------|------------------------------|
r----------------------------------|------------------------------|
    |       |       |       |        |       |       |       |
B----------------------------------|------------------------------|
a----------------------------------|------------------------------|
s---r-------r---0------------------|---------rpt------------------|
s-------------------1---1---0------|------------------------------|


                           
G----------------------------------|------------------------------|
u----------------------------------|------------------------------|
i------------rpt-------------------|--------rpt-------------------|
t----------------------------------|------------------------------|
a----------------------------------|------------------------------|
r----------------------------------|------------------------------|
    |       |       |       |        |       |       |       |
B----------------------------------|------------------------------|
a----------------------------------|------------------------------|
s-----------rpt--------------------|-r-------r---0----------------|
s----------------------------------|-----------------1---1---/12\-|


                 _______________________________
                <<<<<<<<<<<--Verse-1-->>>>>>>>>>>
                 ~~~~~~~~~~~~~~~~~~~~~~~~~~~~~~~
Play 4x:            
            .                                .
G-------------------5---5---8------|------------------------------|
u-------------------5---5---8------|------------------------------|
i---7-5-7-5-7---r------------------|-7-5-7-5-7---r----------------|
t----------------------------------|-----------------5---5---7----|
a----------------------------------|------------------------------|
r----------------------------------|------------------------------|
    |       |       |       |        |       |       |       |
B----------------------------------|------------------------------|
a----------------------------------|------------------------------|
s---5-3-5-3-5---0------------------|---------rpt------------------|
s-------------------1---1---0------|------------------------------|


                 _______________________________
                <<<<<<<<<<<--Verse-2-->>>>>>>>>>>
                 ~~~~~~~~~~~~~~~~~~~~~~~~~~~~~~~

               .  .
G-6-----6---x--6--6--6-6-6-6-6-|          |-6-----6---x------------------|
u-6-----6---x--7--7--7-7-7-7-7-|          |-6-----6---x-1010101010101010-|
i-6-----6---x--8--8--8-8-8-8-8-| Play     |-6-----6---x-1010101010101010-|
t-8-----8---x------------------| 7x then: |-8-----8---x-1010101010101010-|
a-8-----8---x------------------|          |-8-----8---x--8-8-8-8-8-8-8-8-|
r-6-----6---x--
>> Registreer, speel & download <<
Meld nu aan en speel de rest van Live - Tired Of 'me

>> Registreer, speel & download <<
----------------|          |-6-----6---x------------------| 
  |     |      |       |                    |     |      |       | 
B------------------------------|          |------------------------------| 
a------------------------------|          |------------------------------|
s--------------6--6--6-6-4-----|          |------------------------------|
s-6-----6---6--------------4---|          |-6-----6---6--1--1--1-1---1---|
    ^^^^^^^^^^^^^^^^^^^^^^^
  The bass changes some.



                 ______________________________
                <<<<<<<<<<<--Chorus-->>>>>>>>>>>
                 ~~~~~~~~~~~~~~~~~~~~~~~~~~~~~~
NOTE: The second (& third) chorus are played 1 fret higher than noted below!

Play 8x:

                    .  .
G---5-------5----x--5--5--5-5/7--x-x-|
u---5-------5----x--6--6--6-6/8--x-x-|
i---5-------5----x--7--7--7-7/9--x-x-|
t---7-------7----x-------------------|
a---7-------7----x-------------------|
r---5-------5----x-------------------|      
    |       |       |       |
B------------------------------------|
a------------------------------------|
s-------------------3--3--3-3----5---|
s---3---5---5----5-------------------|

                 ______________________________
                <<<<<<<<<<<--Bridge-->>>>>>>>>>>
                 ~~~~~~~~~~~~~~~~~~~~~~~~~~~~~~
Play 4x:

G----------------------------------|
u----------------------------------|
i---8-6-8-6-8----------------------|
t---------------8-6-8-6-8---8-6-8--|
a----------------------------------|
r----------------------------------|    
    |       |       |       |
B----------------------------------|
a----------------------------------|
s---6-4-6-4-6----------------------|
s---------------6-4-6-4-6---6-4-6--|


                 _________________________________
                <<<<<<<<<<<--Interlude-->>>>>>>>>>>
                 ~~~~~~~~~~~~~~~~~~~~~~~~~~~~~~~~~
Play 2x:

G---6---------------|-5---------------|-5---------------|-6---------------|
u---6---------------|-6---------------|-6---------------|-6---------------|
i---6---Weird-------|-5----ditto------|-5-----again-----|-6---and-again---|
t---8----strumming--|-7---------------|-7---------------|-8---------------|
a---8---------------|-8---------------|-8---------------|-8---------------|
r---6---------------|-5---------------|-5---------------|-6---------------|
    |   |   |   |     |   |   |   |     |   |   |   |     |   |   |   |
B-------------------|-----------------|-----------------|-----------------|
a-------------------|-----------------|-----------------|-----------------|
s-------------------|-----------------|-----------------|-----------------|
s---6-6-6-6-6-6-6-6-|-5-5-5-5-5-5-5-5-|-5-5-5-5-5-5-5-5-|-6-6-6-6-6-6-6-6-|


Then go:

G-------------------|-----------------|-----------------|
u--11---------------|-10--------------|-10\-------------|
i--11---Weird-------|-10---ditto------|-10\-------------|
t--11----strumming--|-10--------------|-10\-------------|
a---9---------------|--8--------------|--8\-------------|
r-------------------|-----------------|-----------------|
    |   |   |   |     |   |   |   |      |   |   |   | 
B-------------------|-----------------|-----------------|
a-------------------|-----------------|-----------------|
s---9-9-9-9-9-9-9-9-|-8-8-8-8-8-8-8-8-|--8\-------------|
s-------------------|-----------------|-----------------|



                 ______________________________
                <<<<<<<<<<<--Ending-->>>>>>>>>>>
                 ~~~~~~~~~~~~~~~~~~~~~~~~~~~~~~

G--6-6-6-6-6---
u--6-6-6-6-6---
i--6-6-6-6-6---
t--8-8-8-8-8---
a--8-8-8-8-8---
r--6-6-6-6-6---
   |       |   
B--------------
a--------------
s--------------
s--6-6-6-6-6---

More info