• Streaming gitaar liedjes spelen
  • Leer gitaar spelen & gitaarlessen
  • 80.000 leden
DAT IK JE MIS
		Em	F#	      	G
E	|---0----0--------|--2---------2----------|---3---------3-------|
A	|-----------------|-----------------------|---------------------|
D	|-----2----2------|-----0---------0-------|------0---------0----|
G	|-------0----0----|--------0---------0----|---------0---------0-|
B	|-----------------|-----------------------|---------------------|
e	|-----------------|-----------------------|---------------------|
	            Am		B	C
E	|------------------|-----------------|----------------|
A	|--0----0----------|--2----2---------|--3----3--------|
D	|----2----2--------|----0----0-------|----2----2------|
G	|------2----2------|------0----0-----|------0----0----|
B	|------------------|-----------------|----------------|
E	|------------------|-----------------|----------------|
_____________________________________________________________________________________________________________________ 
[Intro]	
	       Em		F#		G
E	|---0----0--------|--2---------2--------|---3---------3---------3--------3------------|
A	|-----------------|---------------------|---------------------------------------------|
D	|-----2----2------|-----0---------0-----|------0---------0---------0---------0--------|
G	|-------0----0----|--------0---------0--|---------0---------0---------0---------0-----|
B	|-----------------|---------------------|---------------------------------------------|
e	|-----------------|---------------------|---------------------------------------------|


[Chorus 1]
Em                      F#
Je kust me, Je sust me, omhelst me, gerust me
G
Je vangt me,verlangt me, oneindig ontbangt me
Em                       F#
Je roept me, Je hoort me, je redt en verstoort me
G
Gelooft me, berooft me, verstikt en verdooft me
Am                     F# 
Je ademt en leeft me, siddert en beeft me
G
Vertrouwt me, beschouwt me als mens en weerhoudt me
Em                  F#
Van bozige dromen die op komen dagen
G
De eenzame vragen van eindig geluk

[Chorus 2]
Em       
>> Registreer, speel & download <<
Meld nu aan en speel de rest van Maaike Ouboter - Dat Ik Je Mis

>> Registreer, speel & download <<
                   F#
Met je krullen als nacht, hoe je praat, hoe je lacht
G
Hoe je stem zo dichtbij als een engel verzacht
Em                            F#
In mijn dromen doorstromen, oneindige leegtes
G
Je remt me, je temt me, je roert en beweegt me
Am                      F#
Ik mis je, ik mis je, ik grijp je, ik gris je
G
Ik wil je, bespeel je, ik roer en beveel je
Em                      F#
Om bij me te blijven, in donkere nachten
G
Om niet meer te smachten naar jou

[Refrain 1]
Am         C
Laat me los
Em           F#    
Ik moet nu alleen
Am                               C
En houdt me vast als het nodig is, in gedachten
Em                              F#
Ik zoek je in alles om me heen

[Bridge 1]
Am                               B     C  
Maar al denk ik soms dat het zo beter is
Am                          B            C
Kan ik het niet helpen dat ik je soms mis

[Chorus 3]
Em                         F#
Ik smoor je, bevroor je, verlos, en verloor je
G
Weg naar een andere plek maar ik hoor je
Em                      F#
Omarm je, verwarm je, ik zie je en voel je
G
Ik aai je, ik streel je, ik knuffel en kroel je
Am                          F#
Je rijpt me, begrijpt me, verwart en misleidt me
G
Het schrikt me soms af hoeveel ik op je lijk nu
Em                            F#
Mijn glimlach, mijn tranen, mijn liefde voor leven
G
Het spijt me van alles, kom help en bevrijd me

[Refrain 2]
Am         C
Laat me los
Em           F#    
Ik moet nu alleen
Am                               C
En houdt me vast als het nodig is, in gedachten
Em                              F#
Ik zoek je in alles om me heen

[Bridge 2]
Am                             B        C  
Maar al denk ik soms dat het zo beter is
Am                        B              C
Kan ik het niet helpen dat ik je soms mis

[Chorus 4]
Em                            F#
Ik kus je, ik sus je, ik doof en ik blus je
G
Je blijft heel dichtbij me, maar in mijn hoofd rust je

Em,F#,G(Fade out)

More info