• Streaming gitaar liedjes spelen
  • Leer gitaar spelen & gitaarlessen
  • 80.000 leden
Intro/Verse, dit kun je ongeveer het hele lied spelen
e|--------------------------------------------------------------------|
B|------0-----0---0------0-----0---0-----0-----0---0---------2--------|
G|----------3---3------------3---3-----------3---3--------4---4---4---|
D|----4---4------------4---4-----------4---4------------4--4----4-----|
A|--2-----------------------------------------------------------------|
E|-------------------2---------------4----------------0---------------|

“Cause you know, you know…”
e|--------------------------------------------------------------------|
B|------5-----5---5------5-----5---5-------0-----0---0----0-----0---0-|
G|------6-----6---6------6-----6---6
>> Registreer, speel & download <<
Meld nu aan en speel de rest van Nickelback - Far Away

>> Registreer, speel & download <<
-------1-----1---1----1-----1---1-|
D|----6-----6---6------6-----6---6-------2-----2---2----2-----2---2---|
A|--4-----4----------4-----4-----------2-----2---------2-----2--------|
E|-------------------------------------0-----0---------0-----0--------|


“I love you…”
e|-11-----11----11---9-----9----9---9-----9----9---9----9-----9------|
B|---12-----12----12---12---12---12---12---12---12--12----12----12---|
G|-----11-----11---------11---11--------11---11-------11----11-------|
D|-------------------------------------------------------------------|
A|-------------------------------------------------------------------|
E|-------------------------------------------------------------------|

More info