• Streaming gitaar liedjes spelen
  • Leer gitaar spelen & gitaarlessen
  • 80.000 leden
Heey leuk dat je mijn tab bezoekt how you remind me is een eenvoudig liedje om te spelen
het bestaad uit 4 simpele powerchords
het gaat zo

|C     |F    |Bes   |Es   |

als dit te onduidelijk is doe ik het nog een keer in tabelatuur

---------------------------------------------
---------------------------------------------
------5------10------3--------8---------
------5------10------3--------8---------
------3-------8-------1--------6---------
----------------------------------------------
als ik het goed heb doe je dat 4 keer in iedergeval tot het refrein

als het refrein begint heb je dezelfde powerchords alleen dan in een ande
>> Registreer, speel & download <<
Meld nu aan en speel de rest van Nickelback - How You Remind Me

>> Registreer, speel & download <<
re volgorde

-------------------------------------------------
-------------------------------------------------
-------5------8-----3----10-------------------
-------5------8-----3----10--------------------
-------3------6-----1-----8------------------
--------------------------------------------------


dat doe je tot het refrein is afgelopen
dan herhaal je de eerste powerchords weer
|C     |F    |Bes   |Es    |


en dat doe je dan weer tot het refrein bij het refrein doe je weer powerchords
|C    |Es    |Bes   |F   |


en zo ga je de hele tijd door
dit zijn wel alleen de bassen niet het melodietje want ik ben pas 11 dus...

More info

Comments Nickelback - How You Remind Me - tab

basrombouts

Basrombouts 2014-03-10

doe het dan in tabelatuur


danigitaar1999

Danigitaar1999 2013-12-07

is het niet met de stemming in d-a-d-g-b-e?


Hellas89

Hellas89 2010-09-15

dat je pas 11 bent is geen excuus... maar erg goed gedaan.

 


Demiiej1220

Demiiej1220 2010-06-12

whaha ik speel pas vanaf 7 febr 2010 gitaar en ik ken een paar akkoorden

wat de hell is Es ??????

ik weet em niet *cries* maar ik zal em op zoeken

verder bedankt voor het posten

 


Eternal-designs

Eternal-designs 2009-07-06

Ik vind het al heel wat voor iemand van 11jr. Goed hoor & ga vooral zo door !! Lachen