• Streaming gitaar liedjes spelen
  • Leer gitaar spelen & gitaarlessen
  • 80.000 leden
Great balad, ithink, very personal and sounds very cool to be so simple.
Its tuning is drop d: DADGBe so lets see:

Intro (clean acustic) 

Ebsus 
e|-6--6--|
B|-6--8--|
G|-8--8--|
D|-8--8--|
A|-6--6--|
D|-------|

Verse 1 & Verse 2 (clean acustic)

Ebsus Eb Ab     Dbsus Db Gb
e|-6--6--(6)(x)-|--4--4--(4)(x)--|
B|-6--8---6--6--|--4--6---4--4---|
G|-8--8---7--7--|--6--6---5--5---| Reapet as needed
D|-8--8---8--8--|--6--6---6--6---|
A|-6--6---8--8--|--4--4---6--6---|
D|--------------|----------------|

Chorus (light ditortion on electric guitar)

e|---------|-----------|---------|--------|
B|---------|-----------|---------|--------|
G|--8-10-8-|-(10)10----|--6-8-6--|--8-8-8-| Reapet as needed
D|--8-8--8-|--8--10-8--|--6-6-6--|--6-8-6-|
A|--6-6--6-|--8--8--8--|--4-4-4--|--6-6-6-|
D|---------|--8--8--8--|---------|--6-6-6-|


Post chorus riff
      Clean        Light distotion   Overdrive
    ------------   ----------------  ----------
e|-----8-----8---|------------------|----------|
B|--6-----6------|--7--6----7--6----|-----6----|
G|---------------|-------8-------8--|--8----6--|
D|---------------|------------------|----------|
A|---------------|------------------|----------|
D|---------------|------------------|----------|

Verse 1 & Verse 2 (clean electric)

Ebsus Eb Ab     Dbsus Db Gb
e|-6--6--(6)(x)-|--4--4--(4)(x)--|
B|-6--8---6--6--|--4--6---4--4---|
G|-8--8---7--7--|--6--6---5--5---| Reapet as needed
D|-8--8
>> Registreer, speel & download <<
Meld nu aan en speel de rest van Nickelback - Photograph

>> Registreer, speel & download <<
---8--8--|--6--6---6--6---|
A|-6--6---8--8--|--4--4---6--6---|
D|--------------|----------------|

Chorus (light ditortion on electric guitar)

e|---------|-----------|---------|--------|
B|---------|-----------|---------|--------|
G|--8-10-8-|-(10)10----|--6-8-6--|--8-8-8-| Reapet as needed
D|--8-8--8-|--8--10-8--|--6-6-6--|--6-8-6-|
A|--6-6--6-|--8--8--8--|--4-4-4--|--6-6-6-|
D|---------|--8--8--8--|---------|--6-6-6-|

Bridge (frist part) (no vocals)

Ebsus Eb Ab     
e|-6--6--(4)(4)-|
B|-6--8---4--6--|
G|-8--8---6--6--| paly once
D|-8--8---6--6--|
A|-6--6---4--4--|
D|--------------|

Bridge (second part) (Vocals)

Ebsus Eb Ab     Dbsus Db Gb
e|-6--6--(6)(x)-|--4--4--(4)(x)--|
B|-6--8---6--6--|--4--6---4--4---|
G|-8--8---7--7--|--6--6---5--5---| Reapet as needed
D|-8--8---8--8--|--6--6---6--6---|
A|-6--6---8--8--|--4--4---6--6---|
D|--------------|----------------|

   Ebsus  Ab       Dbsus  Gb (strum once)
e|------6----(6)-|--4---no--|
B|-----6-----6---|--4-------|
G|----8-----7----|--6---gui-| Reapet as needed
D|---8-----8-----|--6---tar-|
A|-6-----8-------|--4-------|
D|---------------|----------|

Outro (very clean)

Verse 1 & Verse 2 (clean acustic)

Ebsus Eb Ab     Dbsus Db Gb
e|-6--6--(6)(x)-|--4--4--(4)(x)--|
B|-6--8---6--6--|--4--6---4--4---|
G|-8--8---7--7--|--6--6---5--5---| Reapet as needed
D|-8--8---8--8--|--6--6---6--6---|
A|-6--6---8--8--|--4--4---6--6---|
D|--------------|----------------|

More info

Comments Nickelback - Photograph - tab

xxsuzanxx

Xxsuzanxx 2013-07-26

Ik snap er eigenlijk zeeeeeeeeeeeer weinig van, zijn er geen akkoorden? ^^


shazzer

Shazzer 2009-02-08

idd.


ruben007

Ruben007 2009-01-05

akkoorden van dit liedje AUB!!!!