• Streaming gitaar liedjes spelen
  • Leer gitaar spelen & gitaarlessen
  • 80.000 leden
PART A
e|----------------|---------------------------------------|
B|----------------|---------------------------------------|
G|---------------|----------------------------------------|
D|---------------|----------------------------------------|
A|---------------|--------0----0------------2-------2-|
E|------0-0-1-|--2-------2---2--2-1-0---0-0----|

PART B
     F#5                A
e|-------------0----------|---------------------------|
B|-------------0----------|---------------------------|
G|-------------------------|--2--2--2--2------2--2--2--|
D|--4-4-4------4-4-4-|--2--2--2--2------2--2--2--|
A|--4-4-4------4-4-4-|--0--0--0--0------0--0--0--|
E|--2-2-2------2-2-2-|---------------------------|

PART C
    B                    D
e|-
>> Registreer, speel & download <<
Meld nu aan en speel de rest van Nirvana - Come As You Are (1)

>> Registreer, speel & download <<
--------------------------|-------------------|
B|.--------------------------|--3-3-3-3---3-3-3-.|
G|--4-4-4-4---4-4-4---|--2-2-2-2---2-2-2--|
D|.-4-4-4-4---4-4-4---|--0-0-0-0---0-0-0-.|
A|--2-2-2-4---2-2-2---|--0-0-0-0---0-0-0--|
E|---------------------------|-------------------|

SOLO

e|---------------2--|--------------2---|--------2-------|--4----2---------|
B|--2----5-----2--|--2----5----2---|--2----5-------|--2----2----5---|
G|--2----2---------|--2----2---------|--2----2-------|--------------2---|
D|-------------------|-------------------|-----------------|-------------------|
A|-------------------|-------------------|-----------------|-------------------|
E|-------------------|-------------------|-----------------|-------------------|

More info

Comments Nirvana - Come As You Are (1) - tab

jaspermetalhead

Jaspermetalhead 2009-05-31

solo klopt idd niet


pieke007

Pieke007 2008-02-21

solo klopt niet zo speel je hem

4 DE SNAAR VAN ONDER EN DAN DIT

-6-9-11-6-9-11-6-9-11-13-13-12-12-9

Grijns


pieke007

Pieke007 2008-02-14

wat een makelijke solo


pieke007

Pieke007 2007-12-23

klop dit liedje wel
Verbaasd


Winterstears

Winterstears 2007-01-11

Hij is beetje mislukt .. De | streepjes moeten bij elkaar ..