• Streaming gitaar liedjes spelen
  • Leer gitaar spelen & gitaarlessen
  • 75.000 leden
Nog 10 tab te gaan voor deze maand.
Band : Nirvana 
Nummer : Come As You Are 

E |---------------------------------------| 
B |-----------
De rest van dit nummer alleen voor Gitaartabs leden! Maak gratis Gitaartabs account aan . 
Gitaar Tabs

Download, print en speel de Tab ♪ Nirvana - Come As You Are

Meld je aan en print, download of speel binnen 15 sec mee Tab ♫ Nirvana - Come As You Are.
Reeds 70.000 gitaristen zijn je voorgegaan.

Gratis Aanmelden Gitaartabs

Wat vind jij van deze song? Nirvana - Come As You Are

Comments Nirvana - Come As You Are - tab

SabrinaBritney

SabrinaBritney 2010-09-10

Jaaa hij is echt vett om te spelen :D ik ben net begonnen en vind het echt leuk dat deze lkkr makkelijk te doen is :D Groetjesss


WOUTEREIJK

WOUTEREIJK 2009-01-11

Dit is de goeie!
Intro
e|-------------------------------
a|-------------------------------
d|-------------------------------
g|-------------------------------
b|---------0---0---------2-----2-
e|-0-0-1-2---2---2-2-1-0---0-0---
Solo
e|-----------------------------------------
a|--------------------------------12-------
d|--6--9--11--6--9--11--6--9--11--11--11--9
g|----------------------------------------- x4
b|-----------------------------------------
e|-----------------------------------------
:Lachebek


WOUTEREIJK

WOUTEREIJK 2009-01-11

WOOOOOOOOOOW


Greenday

Greenday 2008-03-06

Hij is we goed!


pieke007

Pieke007 2007-12-21

het liedje klopt niet Verbaasd als ik hem speel


lauraaa_6string

Lauraaa_6string 2007-12-06

Wie vind der Nirvana de beste band die ooit heeft bestaanVerbaasdVerbaasd
IKKEUH!!!!
KURT COBAIN = MY HERO
srry eh
veel plezier aan iedereen met deze fantastische song: come as you are Tong
WWAAAAAAAAAAAAAUW


x__PromQueen

X__PromQueen 2007-12-03

als je klaar bent,, moet je hem ffies naar me to stuuren Knipoog

ok?

xxx


Greenday

Greenday 2007-11-23

Geschrokken Het klopt allemaal niet Geschrokken

Knipoog Zo speel je dit stukje goed! Knipoog

E |-0-0-1-2---2---2-2-1-0---0-------------|
B |---------0---0---------2---2-----------|
G |---------------------------------------|
D |---------------------------------------|
A |---------------------------------------|
E |---------------------------------------|
Grijns SUC6 Grijns


bloodprincess

Bloodprincess 2007-03-03

E |---------------------------------------|
B |---------------------------------------|
G |---------------------------------------|
D |---------0---0---------2----2----------|
A |-0-0-1-2---2---2-2-1-0---00------------|
E |---------------------------------------|
zo meottie volgens mij de laatste 2 kun je weg laten als je um niet achter elkaar speelt
srry als ut neit klopt maar ik vind um zo beter maar jah Kus


Winterstears

Winterstears 2007-01-11

Volgens mij gaat de intro zo:

e|------------|--------------------------------|
B|------------|--------------------------------|
G|------------|--------------------------------|
D|------------|--------------------------------|
A|------------|--------0---0---------2-------2-|
E|------0-0-1-|--2-------2---2-2-1-0---0-0-----|


Sander

Sander 2007-01-11

Zo gaat ie volgens mij ook maar hij lijkt wel heel erg op die van
PunkRockPrincess... het enige verschil is op t laatst
niet 1x maar 2x de lage E-snaar open....
Dat verschil moet men zelf toch wel kunnen horen en aanpassen...
Maar toch bedankt voor het oplettende oog Knipoog


PunkRockPrincess

PunkRockPrincess 2006-12-06

Hijs mislukt Ik weet het niet sorry de volgende keer probeer k het goed te krijgen ^^


Plaats opmerkingen e.o. suggestie voor Nirvana - Come As You Are