• Streaming gitaar liedjes spelen
  • Leer gitaar spelen & gitaarlessen
  • 80.000 leden
Nirvana – In Bloom

Intro:

  Bb5    G5   F5     Ab5
e------------------------
G------------------------
D-3--3-3-----------------
B-3--3-3-5----3--3-3-6---
A-1--1-1-5----3--3-3-6---
E--------3----1--1-1-4---   2x

   Bb5         Gb5         Eb5         B5     A5
e----------------------------------------------------
G----------------------------------------------------
D--------------------------8-8-8-8-8-----------------
B--8-8-8-8-8---4-4-4-4-4---8-8-8-8-8---9-9-9--7-7-7--
A--8-8-8-8-8---4-4-4-4-4---6-6-6-6-6---9-9-9—-7-7-7--
E--6-6-6-6-6---2-2-2-2-2---------------7-7-7--5-5-5--   2x

Verse:

   Bb5         Gb5         Eb5         B5     A5
e----------------------------------------------------
G----------------------------------------------------
D----------------------------------------------------
B----------------------------------------------------
A--------------------------6-6-6-6-6--------—--------
E--6-6-6-6-6---2-2-2-2-2---------------7-7-7--5-5-5--   2x

  Sell the kids for food…
   
   Bb5         Gb5         Eb5         B5     A5
e----------------------------------------------------
G----------------------------------------------------
D--------------------------8-8-8-8-8-----------------
B--8-8-8-8-8---4-4-4-4-4---8-8-8-8-8---9-9-9--7-7-7--
A--8-8-8-8-8---4-4-4-4-4---6-6-6-6-6---9-9-9—-7-7-7--
E--6-6-6-6-6---2-2-2-2-2---------------7-7-7--5-5-5--   2x

  Spring is here again…

Chorus: (2x)

  Bb5     G5
e-------------------
G-------------------
D-------------------
B-8---8-8-5---5-5---
A-8---8-8-5---5-5---
E-6---6-6-3---3-3---   4x

  He’s the one…

  C5      Eb5
e-------------------
G-------------------
D-5---5-5-8---8-8---
B-5---5-5-8---8-8---
A-3---3-3-6---6-6---
E-------------------   2x

Don’t know what it means…


  Bb5    G5   F5     Ab5
e------------------------
G------------------------
D-3--3-3-----------------
B-3--3-3-5----3--3-3-6---
A-1--1-1-5----3--3-3-6---
E--------3----1--1-1-4---   2x

Verse:

   Bb5         Gb5         Eb5         B5     A5
e----------------------------------------------------
G----------------------------------------------------
D----------------------------------------------------
B----------------------------------------------------
A--------------------------6-6-6-6-6--------—--------
E--6-6-6-6-6---2-2-2-2-2---------------7-7-7--5-5-5--   2x

  We can have some more…
   
   Bb5         Gb5         Eb5         B5     A5
e----------------------------------------------------
G----------------------------------------------------
D--------------------------8-8-8-8-8-------
>> Registreer, speel & download <<
Meld nu aan en speel de rest van Nirvana - In Bloom

>> Registreer, speel & download <<
----------
B--8-8-8-8-8---4-4-4-4-4---8-8-8-8-8---9-9-9--7-7-7--
A--8-8-8-8-8---4-4-4-4-4---6-6-6-6-6---9-9-9—-7-7-7--
E--6-6-6-6-6---2-2-2-2-2---------------7-7-7--5-5-5--   2x

  Bruises on the fruit…

Chorus: (2x)

  Bb5     G5
e-------------------
G-------------------
D-------------------
B-8---8-8-5---5-5---
A-8---8-8-5---5-5---
E-6---6-6-3---3-3---   4x

  He’s the one…

  C5      Eb5
e-------------------
G-------------------
D-5---5-5-8---8-8---
B-5---5-5-8---8-8---
A-3---3-3-6---6-6---
E-------------------   2x

Don’t know what it means…

  Bb5    G5   F5     Ab5
e------------------------
G------------------------
D-3--3-3-----------------
B-3--3-3-5----3--3-3-6---
A-1--1-1-5----3--3-3-6---
E--------3----1--1-1-4---   2x

Solo

Chorus: (2x)

  Bb5     G5
e-------------------
G-------------------
D-------------------
B-8---8-8-5---5-5---
A-8---8-8-5---5-5---
E-6---6-6-3---3-3---   4x

  He’s the one…

  C5      Eb5
e-------------------
G-------------------
D-5---5-5-8---8-8---
B-5---5-5-8---8-8---
A-3---3-3-6---6-6---
E-------------------   2x

Don’t know what it means…

  Bb5    G5   F5     Ab5
e------------------------
G------------------------
D-3--3-3-----------------
B-3--3-3-5----3--3-3-6---
A-1--1-1-5----3--3-3-6---
E--------3----1--1-1-4---   2x

Lyrics:

Sell the kids for food
Weather changes moods
Spring is here again
Reproductive glands

He’s the one
Who likes all our pretty songs
And he likes to sing along
And he likes to shoot his gun
But he knows not what it means
Knows not what it means
when I say

He’s the one
Who likes all our pretty songs
And he likes to sing along
And he likes to shoot his gun
But he knows not what it means
Knows not what it means
when I say

We can have some more
Nature is a whore
Bruises on the fruit
Tender age in bloom

He’s the one
Who likes all our pretty songs
And he likes to sing along
And he likes to shoot his gun
But he knows not what it means
Knows not what it means
when I say

He’s the one
Who likes all our pretty songs
And he likes to sing along
And he likes to shoot his gun
But he knows not what it means
Knows not what it means
when I say 

Solo

He’s the one
Who likes all our pretty songs
And he likes to sing along
And he likes to shoot his gun
But he knows not what it means
Knows not what it means
when I say

He’s the one
Who likes all our pretty songs
And he likes to sing along
And he likes to shoot his gun
But he knows not what it means
Knows not what it means 
Knows not what it means
Knows not what it means and I say



More info