• Streaming gitaar liedjes spelen
  • Leer gitaar spelen & gitaarlessen
  • 80.000 leden
smells like teen spirit nirvana, power chords.


E----------------------------------------------------------
B----------------------------------------------------------
G-----------------------3--3-----------------------4--4
D--3--3--3--x--x--x--x--3--3 -x--4--6--x--x--x--x--6--6
A--3--3--3--x--x--x--x--1--1--x--6--6--x--x--x--x--6--6
>> Registreer, speel & download <<
Meld nu aan en speel de rest van Nirvana - Smells Like Teen Spirit (1)

>> Registreer, speel & download <<
E--1--1--1--x--x--x--x--------x--6--6--x--x--x--x------

2X





E----1----1----1----1
B--1----1----1----1--
G--------------------
D--------------------
A--------------------
E-------------------

Eerste stuk herhalen


probeer bij de powerchords de snaren die je niet gebruikt te dempen met je wijsvinger 

Succes!
sam1995,

More info