• Streaming gitaar liedjes spelen
  • Leer gitaar spelen & gitaarlessen
  • 80.000 leden
Refrein
e---1-1-1--x-x-x-x-----/---4-4-4--x-x-x-x-----/
a---3-3-3--x-x-x-x--1-1/---6-6-6--x-x-x-x--4-4/
d---3-3-3--x-x-x-x--3-3/---6-6-6--x-x-x-x--6-6/
g-------------------3-3/-------------------6-6/
b----------------------/----------------------/
e----------------------/----------------------/

Dit stuk doe je als de zanger gaat zingen

Stuk 1
e-----/
a-----/
a-----/
d-----/
g-----/
b---1-/
e----1/

Dit 6 keer herhalen en daarna dit heel snel spelen.
Dan komt weer het refrein en dan komt dit stuk.

Stuk 2
e---1-1-1--2-2-----1-1-1-1--8---4/
a---3-3-3--4-4-----3-3-3-3--10--6/
d---3-3-3--4-4--3--3-3-3-3--10--6/
g--------------------------------/
b--------------------------------/
e--------------------------------/

Dit 2 keer herhalen
Dan nog de solo.

e-----------------------------/
a-----------------------------/
d------4-----------6-4-(6)-4-3/
g--3-6--(6)-4-3-4-3-----------/
b-----4-----------------------/
e-----------------------------/

Dit 2 keer herhalen en dan doe je dit.

e--------------------/
a--------------------/
d--4-3-4-3-4-3-4-3-3-/
g-------------------6/
b--------------------/
e--------------------/

Dit herhaal je 4 keer en dat was dan de solo.
Als er vragen zijn stel ze. 

Load up on guns and bring your friends
>> Registreer, speel & download <<
Meld nu aan en speel de rest van Nirvana - Smells Like Teen Spirit(helemaal)

>> Registreer, speel & download <<
It's fun to lose and to pretend
She's over bored and self assured
I know, I know a dirty word

Hello, hello, hello, how low?
Hello, hello, hello, how low?
Hello, hello, hello, how low?
Hello, hello, hello

With the lights out it's less dangerous
Here we are now, entertain us
I feel stupid and contagious
here we are now, entertain us
A mulatto
An albino
A mosquito
My Libido
Yeah
Hey
Yay

I'm worse at what I do best
And for this gift I feel blessed
Our little group has always been
And always will until the end

Hello, hello, hello, how low?
Hello, hello, hello, how low?
Hello, hello, hello, how low?
Hello, hello, hello.

With the lights out it's less dangerous
Here we are now, entertain us
I feel stupid and contagious
here we are now, entertain us
A mulatto
An albino
A mosquito
My Libido
Yeah
Hey
Yay

{gitaar solo}

And I forget just why I taste
Oh yeah, I guess it makes me smile
I found it hard, it's hard to find
Oh well, whatever, nevermind

Hello, hello, hello, how low?
Hello, hello, hello, how low?
Hello, hello, hello, how low?
Hello, hello, hello

With the lights out it's less dangerous
Here we are now, entertain us
I feel stupid and contagious
here we are now, entertain us
A mulatto
An albino
A mosquito
My Libido

More info

Comments Nirvana - Smells Like Teen Spirit(helemaal) - tab

JanH

JanH 2018-08-24



guitargirlx

Guitargirlx 2013-05-21

Easy but fun


110823

110823 2011-07-12

@bartino Je hebt alleen de snaren precies andersom, niet zo handig, Als je een tab schrijft horen de snaren zo te staan: e|-----------------------------| --> Dunste snaar B|-----------------------------| G|-----------------------------| D|-----------------------------| A|-----------------------------| E|-----------------------------| --> Dikste snaar Verder is ie helemaal OK!!! Klasse gedaan!!!


D-guitar

D-guitar 2010-03-28

ik zou hm anders doen :S


Durk(12)

Durk(12) 2009-06-11

lol ik speelde hem zo : ( - is glijden geval xD)het zijn allemaal power accoorden en het is op de bovenste snaren Lachebek

222-770 555-110 en herhalen xD nou ja suc6 ik zal deze manier maar ff teste xD


GitaarFreakxD

GitaarFreakxD 2008-10-21

preachtig nummer Lachen