• Streaming gitaar liedjes spelen
  • Leer gitaar spelen & gitaarlessen
  • 75.000 leden
De Boer dat is de Keerl     Normaal

Intro:

e|-------------------------------------------------------------------
B|-------------------------------------------------------------------
G|-----0-0-2-0--------0-0-2-0--------------0-0-----2-0---------------
D|---2---------------2------------------2-------2-------2-0-----0----
A|-3----------------3-----------------3----------------------3-------
E|-------------------------------------------------------------------

E|------3---------------------------------------------------------------------0
B|------0---------------------------------------------------------------------1
G|------0---------0-----------------------------------------------------------0
D|------0------2----2-0-----2-0--------2-0------------------0-0--—-2--0-------2
A|----2------3-----------3--------3-3--------3-0-------2-2-------3-------3----3
E|--3---------------------------------------------3-3--------------------------


       C
hi-j warkt deur zommer en winter
       F	         
De rest van dit nummer alleen voor Gitaartabs leden! Maak gratis Gitaartabs account aan . 
Gitaar Tabs

Download, print en speel de Tab ♪ Normaal - De Boer Dat Is De Keerl

Meld je aan en print, download of speel binnen 15 sec mee Tab ♫ Normaal - De Boer Dat Is De Keerl.
Reeds 70.000 gitaristen zijn je voorgegaan.

Gratis Aanmelden Gitaartabs

Comments Normaal - De Boer Dat Is De Keerl - tab

joost de baas zelf

Joost de baas zelf 2013-03-19

hoe download je dit??


kenworth

Kenworth 2011-12-15

Bedankt voor de snelle aanpassing toppie


kenworth

Kenworth 2011-12-14

Jammer dat de akkoorden zover uit de regel is gezet.....
vindt het een heel goede band en tabs zijn moeilijk te vinden.
Ik denk dat er veel vraag naar is, dus heb je meer dan heeeeeeel graag   ;-)
Al is het voor mij hahahaha