• Streaming gitaar liedjes spelen
  • Leer gitaar spelen & gitaarlessen
  • 80.000 leden
e|-------------0---------------------|
B|------0-3-3----3-0------0-0--------|
G|--0-2--------------0--2-----2-0-2--|
D|-----------------------------------|
A|-----------------------------------|
E|-----------------------------------|

e|-------------0---------------------|
B|------0-3-3----3-
De rest van dit nummer alleen voor Gitaartabs leden!  Meld je aan, leer & speel  . 
Gitaar Tabs

Download, print en speel de Tab ♪ Oh Susanna - Oh Susanna

Meld je aan en print, download of speel binnen 15 sec mee Tab ♫ Oh Susanna - Oh Susanna.
Reeds 80.000 gitaristen zijn je voorgegaan.

Meld je aan, leer & speel

More info

Meer Oh Susanna songs

Oh Susanna - Oh Susanna