• Streaming gitaar liedjes spelen
  • Leer gitaar spelen & gitaarlessen
  • 80.000 leden
[Intro (x2)]
e|----5-7-5-3---0-3--0--7---5-7-5-3---0-3--0--7-5--|
B|------------3---------------------3--------------|
G|-------------------------------------------------|
D|-------------------------------------------------|
A|-------------------------------------------------|
E|-------------------------------------------------|

e|--5-7-5-3---0-3--0---3-10-7---3--5--7--|
B|----------3----------------------------|
G|---------------------------------------|
D|---------------------------------------|
A|---------------------------------------|
E|---------------------------------------|

[Chorus]
e|---------------------------------------------------|
B|--0-0---0----------------------0-----------0-------|
G|------2---2-0-0--0-0-0-------2---2-0-2-2-0----2-0--|
D|-----------------------2---------------------------|
A|---------------------------------------------------|
E|---------------------------------------------------|

e|------------------------------3---2-----2--|
B|----0----------------------3---------3-----|
G|--2---2-0--2-0---------0-------------------|
D|---------------2-2-2-0---------------------|
A|-------------------------------------------|
E|-------------------------------------------|

e|-----------------------------------------------------|
B|--0-0-0---0----------------------0-----------0-------|
G|--------2---2-0-0--0-0-0-------2---2-0-2-2-0----2-0--|
D|-------------------------2---------------------------|
A|-----------------------------------------------------|
E|-----------------------------
>> Registreer, speel & download <<
Meld nu aan en speel de rest van Passenger - Let Her Go

>> Registreer, speel & download <<
------------------------|

e|-------------------------------------------|
B|----0-------------------------------0------|
G|--2---2-0--2-0---------0--------2-0---2-0--|
D|---------------2-2-2-0---------------------|
A|-------------------------------------------|
E|-------------------------------------------|

[Verse 1]
e|-----------------------------------------------|
B|--0---0-0--0-----0-0--0-----------0----0-0--0--|
G|-------------0------------2--2-2---------------|
D|-----------------------------------------------|
A|-----------------------------------------------|
E|-----------------------------------------------|

e|----------------------------------------------|
B|---0-0--0-------------------------------------|
G|-------------0-0--0----------------0-0-0-0----|
D|----------------------4---4-4--4-----------4--|
A|----------------------------------------------|
E|----------------------------------------------|

e|---------------------------------------------|
B|--0-0-0-0-0------------1-0--0----------------|
G|------------2-0-0--0----------2--2-2-0-------|
D|---------------------------------------4--4--|
A|---------------------------------------------|
E|---------------------------------------------|

e|
B|
G|
D|
A|
E|

e|
B|
G|
D|
A|
E|

I'm not finished yet, I know, but I needed to stop, so I'll finish it up later.
If you want to now the rest of the tabs here is the youtube link I got them from https://www.youtube.com/watch?v=jxjs4gqLdSk&t=0s&list=PLe93NRkkb0eltsoINpYzbzjhaRiN30V2y&index=8

More info