• Streaming gitaar liedjes spelen
  • Leer gitaar spelen & gitaarlessen
  • 75.000 leden
Nog 10 tab te gaan voor deze maand.
[Intro (x2)]
e|----5-7-5-3---0-3--0--7---5-7-5-3---0-3--0--7-5--|
B|------------3---------------------3--------------|
G|-------------------------------------------------|
D|-------------------------------------------------|
A|-------------------------------------------------|
E|-------------------------------------------------|

e|--5-7-5-3---0-3--0---3-10-7---3--5--7--|
B|----------3----------------------------|
G|---------------------------------------|
D|---------------------------------------|
A|---------------------------------------|
E|---------------------------------------|

[Chorus]
e|---------------------------------------------------|
B|--0-0---0----------------------0-----------0-------|
G|------2---2-0-0--0-0-0-------2---2-0-2-2-0----2-0--|
D|-----------------------2---------------------------|
A|---------------------------------------------------|
E|---------------------------------------------------|

e|------------------------------3---2-----2--|
B|----0----------------------3---------3-
De rest van dit nummer alleen voor Gitaartabs leden! Maak gratis Gitaartabs account aan . 
Gitaar Tabs

Download, print en speel de Tab ♪ Passenger - Let Her Go

Meld je aan en print, download of speel binnen 15 sec mee Tab ♫ Passenger - Let Her Go.
Reeds 70.000 gitaristen zijn je voorgegaan.

Gratis Aanmelden Gitaartabs

Wat vind jij van deze song? Passenger - Let Her Go

Comments Passenger - Let Her Go - tab

Plaats opmerkingen e.o. suggestie voor Passenger - Let Her Go