• Streaming gitaar liedjes spelen
  • Leer gitaar spelen & gitaarlessen
  • 75.000 leden
Nog 10 tab te gaan voor deze maand.
Solo 
|-----10--14~~~--14b15r14----------------------------------------|
|---10----------------------15b17r15~~~--15--14--14--------------|
|-11------------------------------------------------14-----------|
|------------------------------------------------------14~12~~~-|
|----------------------------------------------------------------|
|----------------------------------------------------------------|

|-----10--14~~~--14b15r14--------------------------------------|
|---10----------------------15b17r15p14------------------------|
|-11------------------------------------14---------------------|
|---------------------------
De rest van dit nummer alleen voor Gitaartabs leden! Maak gratis Gitaartabs account aan . 
Gitaar Tabs

Download, print en speel de Tab ♪ Pink Floyd - Comfortably Numb (solo)

Meld je aan en print, download of speel binnen 15 sec mee Tab ♫ Pink Floyd - Comfortably Numb (solo).
Reeds 70.000 gitaristen zijn je voorgegaan.

Gratis Aanmelden Gitaartabs

Wat vind jij van deze song? Pink Floyd - Comfortably Numb (solo)

Comments Pink Floyd - Comfortably Numb (solo) - tab

Plaats opmerkingen e.o. suggestie voor Pink Floyd - Comfortably Numb (solo)