• Streaming gitaar liedjes spelen
  • Leer gitaar spelen & gitaarlessen
  • 75.000 leden
Nog 10 tab te gaan voor deze maand.
Intro:

   C#m 	         
e|----------0---------------0--------|----------0---------------0--------|
B|------4-------4-------4-------4----|------4-------4-------4-------4----|
G|----4---4---4---4---4---4---4---4--|----4---4---4---4---4---4---4---4--|
D|--6---------------6----------------|--6---------------6----------------|
A|-----------------------------------|-----------------------------------|
E|-----------------------------------|-----------------------------------|

   B                                   A
e|----------0---------------0--------|----------0---------------0--------|
B|------4-------4-------4-------4----|------4-------4-------4-------4----|
G|----4---4---4---4---4---4---4---4--|----4---4---4---4---4---4---4---4--|
D|--4---------------4----------------|--2---------------2----------------|
A|-----------------------------------|-----------------------------------|
E|-----------------------------------|-----------------------------------|

(X 3)

Verse:

   D                                    
e|----2-3---0---3-2---2-3---0---3-2--|----2-3---0---3-2---2-3---0---3-2--|
B|------------3---------------3------|------------3---------------3------|
G|--2-----2---------2-----2----------|--2-----2---------2-----2----------|
D|-----------------------------------|-----------------------------------|
De rest van dit nummer alleen voor Gitaartabs leden! Maak gratis Gitaartabs account aan . 
Gitaar Tabs

Download, print en speel de Tab ♪ Pink Floyd - Louder Than Words

Meld je aan en print, download of speel binnen 15 sec mee Tab ♫ Pink Floyd - Louder Than Words.
Reeds 70.000 gitaristen zijn je voorgegaan.

Gratis Aanmelden Gitaartabs

Wat vind jij van deze song? Pink Floyd - Louder Than Words

Comments Pink Floyd - Louder Than Words - tab

Plaats opmerkingen e.o. suggestie voor Pink Floyd - Louder Than Words