• Streaming gitaar liedjes spelen
  • Leer gitaar spelen & gitaarlessen
  • 75.000 leden
  	Intro	
Strum a few Times   Strum a few Times	
	    	     ^V^                 ^V^
e---------------------3-------------------3---|
B---------------------3-------------------3---|
G---------------------0-------0-----------0---|
D-------------0--2----0----2-----2--------0---|   * 2            
A------0h2------------2-------------------2---|     
E---3-----------------x-------------------3---|      

                Strum a few Times               Strum a few Times
                     ^V^                              ^V^
e---------------------3--------------------------------3---|
B---------------------3--------------------------------3---|
G---------------------0--------------------------------2---|
D-------------0--2----0------2-----0-------------------2---|   * 2
A------0h2------------2------------------2-------0-----0---|
E---3-----------------x--------------------------------0---|




e---3---|    
B---3---|
G---0---|
D---0---|   ( Guitar 1 continues to play over the solo )      
A---2---|
E---3---|




Solo: ( 2nd Guitar )

e----------------------------------------------------------|
B----------3---5--------3----------------------------------|
G-----2/4-----------4--------4----2---0--------------------|     
D------------------------------------------0---------0---0-|
A-----------------------------------------------1/2--------|
E----------------------------------------------------------|


e----3/5/3-------------------------------------------------|
B----3/5/3----3/5/3----3----3/5/3--------------------------| 
G-------------2/4/2----0----2/4/2---2p0----2/4-------------|
D------------------------------------------3/5-------------|
A----------------------------------------------------------|
E----------------------------------------------------------|


e---------------------------------------------------------------------|
B----------3--------5----5
De rest van dit nummer alleen voor Gitaartabs leden! Maak gratis Gitaartabs account aan . 
Gitaar Tabs

Download, print en speel de Tab ♪ Pink Floyd - Wish You Were Here

Meld je aan en print, download of speel binnen 15 sec mee Tab ♫ Pink Floyd - Wish You Were Here.
Reeds 70.000 gitaristen zijn je voorgegaan.

Gratis Aanmelden Gitaartabs

Comments Pink Floyd - Wish You Were Here - tab

darm87

Darm87 2012-06-07

wat is "strum a few times"?