• Streaming gitaar liedjes spelen
  • Leer gitaar spelen & gitaarlessen
  • 80.000 leden
Hanz Zimmer - Davy Jones 

e|-----------------------------------------------------------------------|
B|----------------1--------------1--3---------------1--------------------|
G|----------0--2--0--3--2--2--3--0--0--2--0--2---3--0-2----0--3--2-------|
D|-0--2--3--0--0-----0--0--0--0--------0--0--0---0----0--3-0--0--0--3----|
A|-0--0--0-----------------------------------------------0---- -----0----|
E|-----------------------------------------------------------------------|

e|--------------------
>> Registreer, speel & download <<
Meld nu aan en speel de rest van Pirates Of The Caribbean - Davy Jones

>> Registreer, speel & download <<
---------------------------------------------------|
B|-----------------------------------------------------------------------|
G|-----------------------------------------------------------------------|
D|-0--2--------2--0----0------------------------------------------------|
A|-0--0--3--0--0--0--3-0------------------------------------------------
E|-------0--0--------0--------------------------------------------------|




Hanz zimmer davy jones
octopusman op orgel
Succes!


sam 1995



More info

Comments Pirates Of The Caribbean - Davy Jones - tab

Caroline Buve

Caroline Buve 2014-02-24

met twee vingers de snaren vastpakken en loslaten


Dolfijn92

Dolfijn92 2011-02-22

hoe sla je 2 snaren tegelijk aan??


timodeklerk

Timodeklerk 2010-12-29

nice GINO.


femmie108

Femmie108 2010-12-10

makkelijk als je hem door hebt!. Maar in het begin wel moeilijk.


Lottettjee

Lottettjee 2010-10-24

hier een site voor je dan snap je het wel wat alles is  gitaar-leren-spelen.nl

 


benjamster

Benjamster 2010-06-15

ik snap het niet wat betekent alles?

 


Sam1995

Sam1995 2010-06-15

@ benjamster

De letters zijn de snaren: e, B en G de hoogste 3 snaren. E,A en D de laagste.
de getallen zijn de fret waar je de snaar moet indrukken bij een 0 moet je de snaar los aanspelen, bij deze tab moet je steeds twee snaren tegelijk aanslaan.


benjamster

Benjamster 2010-06-15

bedankt maar zijn er 2 varianten ofzo?


Sam1995

Sam1995 2010-06-15

je moet twee snaren tegelijk aanslaan


T lily

T lily 2010-06-12

Grappig^^