• Streaming gitaar liedjes spelen
  • Leer gitaar spelen & gitaarlessen
  • 80.000 leden
e------------------------------------------------------------------------------------------------------------------|
B------------------------------------------------------------------------------------------------------------------|
G-------------------------------------------------------------------------------7----------------------------------|
D------------------------------------------------------------------------------------------------------------------|
A-------5—5—5—5—5—5—5—5—5—5—5—5—5—5—5—5—5—5------------------------------------------------------------------------|
E------------------------------------------------------------------------------------------------------------------|

e------------------------------------------------------------------------------------------------------------------|
B----------------------------5—6—6------6—8—5—5--------------------------------------------------------------------|
G----5—7—7--------7---------------------------------------------7—5—5h7--------------------------------------------|
D-7----------------------------------------------------------------------------------------------------------------|
A------------------------------------------------------------------------------------------------------------------|
E------------------------------------------------------------------------------------------------------------------|

e------------------------------------------------------------------------------------------------------------------|
B----------------------------5—6—6------6—8—5—5--------------------------------------------------------------------|
G------5—7—7-------7-----------------------------------------7—5—7-------------------------------------------------|
D-7----------------------------------------------------------------------------------------------------------------|
A------------------------------------------------------------------------------------------------------------------|
E------------------------------------------------------------------------------------------------------------------|

e--------------------------------------------------5—6—6--------5------5-------------------------------------------|
B----------------------------6—8—8-------8--------------------------8----------------------------------------------|
G-----5—7—7-------7---------------------------------------------------------7--------------------------------------|
D-7----------------------------------------------------------------------------------------------------------------|
A------------------------------------------------------------------------------------------------------------------|
E------------------------------------------------------------------------------------------------------------------|

e-------------------------5----------------------------------------------------------------------------------------|
B----5—6—6------8-------------------6--5--5--6------5--------------------------------------------------------------|
G-7--------------------------7--------7------------------7---------------------------------------------------------|
D------------------------------------------------------------------------------------------------------------------|
A------------------------------------------------------------------------------------------------------------------|
E------------------------------------------------------------------------------------------------------------------|

e------------------------------------------------------------------------------------------------------------------|
B----------------------------5—6—6------6—8—5—5--------------------------------------------------------------------|
G----5—7—7--------7---------------------------------------------7—5—5h7--------------------------------------------|
D-7----------------------------------------------------------------------------------------------------------------|
A------------------------------------------------------------------------------------------------------------------|
E------------------------------------------------------------------------------------------------------------------|

e------------------------------------------------------------------------------------------------------------------|
B----------------------------5—6—6------6—8—5—5--------------------------------------------------------------------|
G------5—7—7-------7-----------------------------------------7—5—7-------------------------------------------------|
D-7----------------------------------------------------------------------------------------------------------------|
A------------------------------------------------------------------------------------------------------------------|
E------------------------------------------------------------------------------------------------------------------|

e--------------------------------------------------5—6—6--------5------5-------------------------------------------|
B----------------------------6—8—8-------8--------------------------8----------------------------------------------|
G-----5—7—7-------7---------------------------------------------------------7--------------------------------------|
D-7-
>> Registreer, speel & download <<
Meld nu aan en speel de rest van Pirates Of The Caribbean - He Is A Pirat

>> Registreer, speel & download <<
---------------------------------------------------------------------------------------------------------------|
A------------------------------------------------------------------------------------------------------------------|
E------------------------------------------------------------------------------------------------------------------|

e-------------------------5----------------------------------------------------------------------------------------|
B----5—6—6------8-------------------6--5--5------------------------------------------------------------------------|
G-7--------------------------7--------7-------------7--5—7---------------------------------------------------------|
D------------------------------------------------------------------------------------------------------------------|
A------------------------------------------------------------------------------------------------------------------|
E------------------------------------------------------------------------------------------------------------------|

e----------------------5/1---------------6-------------------------------------------------------------------------|
B-----5—6—6—8----------3--------------6----------------------------------------------------------------------------|
G-7--------------------------------2--------------7-----------7---10-----------------------------------------------|
D------------------------------------------------------8—7—7---7---------------------------------------------------|
A------------------------------------------------------------------------------------------------------------------|
E------------------------------------------------------------------------------------------------------------------|

e------------------------------------------------------------------------------------------------------------------|
B-10—10—10—11—10-----8—8—8—8—10-----10—10—10—11—10---8—6—5—6-------------------------------------------------------|
G-10—10—10—10—10-----9—9—9—9—9-------10—10—10—10—10---9—7-------7--------------------------------------------------|
D------------------------------------------------------------------------------------------------------------------|
A------------------------------------------------------------------------------------------------------------------|
E------------------------------------------------------------------------------------------------------------------|

e------------------------------------------------------------------------------------------------------------------|
B----------------8—10—8------------------8—10—8---------8—10--8----------------------------------------------------|
G-7—9—10-----------------10—8—10------------------10--------------------9—10—9—7—9—5—7-----------------------------|
D------------------------------------------------------------------------------------------------------------------|
A------------------------------------------------------------------------------------------------------------------|
E------------------------------------------------------------------------------------------------------------------|

e------------------------------------------------------------------------------------------------------------------|
B--------------------------8---------8—10—8-----------------------------8—10—11—8----------------------------------|
G-7—9—10—9—10------10------------------10—7-----7—9—10-----------------------9—10—9—7—9—5--------------------------|
D------------------------------------------------------------------------------------------------------------------|
A------------------------------------------------------------------------------------------------------------------|
E------------------------------------------------------------------------------------------------------------------|

e------------------------------------------------------------------------------------------------------------------|
B------10----11---—10—10—10---10------8----------------------------------------------------------------------------|
G------7------10--—10—10—10—10-------------12—10—9—10—9—7----------------------------------------------------------|
D---------------------------------------------------------12—10—7—7-----7—7----------------------------------------|
A------------------------------------------------------------------------------------------------------------------|
E------------------------------------------------------------------------------------------------------------------|

e---------------5------------------------6---------------------5—5—8—5---------------------------------------------|
B----------6------------------------6---------------------6----------------------8------8—6-----5---6—5------------|
G-----7------------------------7---------------------7-----------------------------------9—7-----7-----------7-----|
D-7----------------------7----------------------7------------------------------------------------------------------|
A------------------------------------------------------------------------------------------------------------------|
E------------------------------------------------------------------------------------------------------------------|





More info

Comments Pirates Of The Caribbean - He Is A Pirat - tab

darm87

Darm87 2012-11-13

hij klopt volgens mij helemaal!! toppie!