• Streaming gitaar liedjes spelen
  • Leer gitaar spelen & gitaarlessen
  • 80.000 leden
-------------------0---1--1--1----3--0-0-------------           De volgorde is:
-----1--3--3--3-----------------------------3--1-1--3
---2----------------------------------------------------        Je speelt gewoon van boven naar beneden, maar je moet di
--------------------------------------------------------        -t lied 2 keer spelen dus je speelt bij de eerste keer 
--------------------------------------------------------        het onderste couplet niet. Bij de 2de keer spelen speel 
-------------------------------------------------------       je het één na laatste couplet niet maar de laatste weer we   
                                                              -l. Groeten jodebest!
-------------------0---1--1--1----3--0-0-------------
-----1--3--3--3-----------------------------3--1--3
---2----------------------------------------------------
--------------------------------------------------------
--------------------------------------------------------
-------------------------------------------------------

-------------------1--3-3-3--5--6-6--5-3-5--------1--3-5----
----
>> Registreer, speel & download <<
Meld nu aan en speel de rest van Pirates Of The Caribbean - He Is A Pirate Hoge Versie

>> Registreer, speel & download <<
----1---3-3-3---------------------------3-3----------3-3
------2-----------------------------------------------------
------------------------------------------------------------
------------------------------------------------------------
------------------------------------------------------------

-------1-0-0-1-0--------------------------------------------
------------------------------------------------------------
-----------------------------------------------------------
-----------------------------------------------------------
-----------------------------------------------------------       
-----------------------------------------------------------


------1---------------------------------------------------
----2----3-1-3---------------------------------------------
----------------------------------------------------------
----------------------------------------------------------
----------------------------------------------------------
----------------------------------------------------------
__________________2_________________________________________





More info

Comments Pirates Of The Caribbean - He Is A Pirate Hoge Versie - tab

ruud667

Ruud667 2013-11-10

Best leuk :D


kenworth

Kenworth 2012-01-02

OK

Ik zie het wel weer aangemeld komen, daarom zal ik het niet volledig goed keuren, anders verdwijnt het in de data.